Matthew Good Band
i, the throw away
the audio of being
Tune down Approx 3/4 step. (Tune to the song if you want to be dead on)
Go through Intro Twice without vocals Repeat Ending
============
E|-------||------------|-----------------|-----------------||-----------
B|-------||*-----------|-----------------|-----------------||-----------
G|-------||------------|-----------------|-----------------||-----------
D|-----7-||------7-----|-----7-----7-----|-----2-----2-----||-2-----2---
A|---5---||*---5-----5-|---4-----4-----0-|---2-----2-----2-||-----2-----
E|-0-----||--0-----0---|-0-----0-----0---|-0-----0-----0---||---0-----0-

Bridge Ending
=============|===================>
E------------||------------------||------------------|-----------------
B-----------*||------------------||*-----------------|-----------------
G------------||------------------||------------------|-----------------
D---2----/7--||-----2-----2------||------5-----5-----|-----4-----4-----
A-2----/5---*||---2-----2-----0--||*---5-----5-----5-|---5-----5-----5-
E-----0------||-3-----3-----3----||--3-----3-----3---|-3-----3-----3---

E-|-----------------|-----------------||-----------------0---||--------
B-|-----------------|----------------*||-----------------0---||*-------
G-|-----------------|-----------------||-----------------0---||--------
D-|-----7-----7-----|-7-----7-----7---||-----5-----5-----4---||--------
A-|---7-----7-----7-|-----7-----7----*||---5-----5-----5-5---||*----12-
E-|-5-----5-----5---|---5-----5----\--||-3-----3-----3---3---||--10----

E|--------------------------------------------------------------------||-
B|-------------------------------------------------------------------*||-
G|--------------------------------------------------------------------||-
D|-11-------11-----------7-----7---------5p4-----4p0-----0-----0------||-
A|-------12-------12---7-----7-----7---5-------5-------0-----0-----0-*||-
E|----10-------10----5-----5-----5---3-------3-------2-----2-----2----||-




Ваше мнение



Капча