Song: Deep Six
Artist: Matthew Good Band
Album: Underdogs

Tabbed by Steve
Intro/Verse
G|------------------------------------------------|
D|------------------------------------------------|
A|---4-4----2-2-----------------------------------|
E|-----------------5-5----2-2--2--2---0h2h3---0---|
Chorus
G|--------------------|----------------|----------------|----------------|
D|--------------------|----------------|----------------|---7------------|
A|--------------------|---0--0--0--0---|----------------|---0--0--0--0---|
E|---0---0-0--0-0-0---|----------------|---2--2--2--2---|----------------|


Post-Chorus fill
G|-----------------------|
D|-----------------------|
A|-------------2-2-2-3---|
E|---2-2-2-2-------------|

Bridge/solo
G|----------------|----------------|----------------|
D|*---------------|----------------|---------------*|
A|*--4-4-4--4-4---|----------------|---------------*|
E|----------------|---2-2-2--2-2---|---5-5-5--5-5---|
G|----------------------------------|
D|----------------------------------|
A|----------------------------------|
E|---5-5--0-0--5-5--0-0--5-5--0-2---|

Verse With No Guitar
G|---------6p0----------4p0-----------------------------|
D|------------------------------------------------------|
A|---4-4----------2-2-----------------------------------|
E|----------------------------5-5---2-2--2--2p0h2h3p0---|

That's about it, it's not that hard just time it right and add the
character that some of those notes need to sound right...any questions,
just Email me at [email protected]




Ваше мнение



Капча