This is my first tab so it might be wrong, but I'm pretty sure it isn't.
Enjoy!!!!!!
Artist:Matchbox 20
Album:More Than You Think You Are
Song:You're So Real #11

Intro
E--------------------------
A--------------------------
G--------------------------
D--------2--4--------------
B-----4--------------------
E--2-----------------------
Verse 1
E--------------------------
A--------------------------
G--------------------------
D-----------2--4-----------
B-----4--4-----------------
E--2-----------------------
Bridge 1 Bridge 2
E----x------x----/----x------x------x----
A----9------4--------9------4------7----
G----9------4----/----9------4------7----
D----9------4--------9------4------7----
B----7------2----/----7------2------5----
E----x------x--------x------x------x----
Chorse
E---------------------------------------------------
A---------------------------------------------------
G-----------4--4--4--4-----------4--4--4--4---------
D--4--4--4--4--4--4--4--2--2--2--4--4--4--4---------
B--4--4--4--2--2--2--2--2--2--2--2--2--2--2---------
E--2--2--2--------------0--0--0---------------------
Verse 2
E--------------
A--------------
G--------------
D--4-----------
B--4-----------
E--0h2---------
Bridge 3
E--2--2--2--2--4--2----
A--3--2--3--2--4--3----
G--4--3--4--3--4--4----
D--4--4--4--4--6--4----
B--2--4--2--4--6--2----
E-----2-----2--4-------
Order I which they come in the song.
Intro x11
Verse 1 x12
Bridge 1
Verse 1 x2
Bridge 2
Chorus x2
Verse 1 x3
Verse 2 x8
Bridge 1
Verse 1 x2
Bridge 2
Chorus x2
Bridge 3
Chorus x4
The End
Hope you enjoyed!!!!!Good Luck!!!!!!





Ваше мнение



Капча