Song: Unwell
Artist: Matchbox twenty
Tabbed by: Bryan Chua [email protected]
hi peeps!! i listened to this song by matchbox twenty and kinda liked it
so i decided to to make a tab of it. Besides, all of the tabs i saw lacked the
important parts (intro and fills), so here it goes
Chords:
Basic Power
Asus2 D9 E F#m C#m F#5 D5 E5
e--0--------0------0------2------4 X------X------X
A--0--------3------0------2------5 X------X------X
D--2--------2------1------2------6 X------7------X
G--2--------0------2------4------6 4------7------2
B--0--------X------2------4------4 4------5------2
E--X--------X------0------2------4 2------X------0
Intro: Asus2-D9-F#m-E twice (u can do this also 1 octave lower)
do this riff twice then repeat
e-----------------------------------------------------------
B-----------------------------------------------------------
G----------14h16p14-------------14h16p14-------13-(16p14)--- (first time only)
D----14h16---------16------14h16---------16----14--------(16)
A-----------------------------------------------------------
E-----------------------------------------------------------
Fills (u could use these fills at almost any part of the song. these are optional
though) ive heard these while listening at the song.
e-------------------/------19p17------------------/-------------
B-------------------/------------19p17------------/-------------
G----14h16p14-14----/------------------18p16-14---/-------------
D-------------16----/-----------------------------/-------------
A-------------------/-----------------------------/-------------
E-------------------/-----------------------------/-------------
Playing Tips:
just get the feel of the song, strum the chords once.
D9 E
ALL DAY
Asus2 F#m
STARING AT THE CEILING MAKING
D9 E F#m
FRIENDS WITH SHADOWS ON MY WALL
D9 E
ALL NIGHT
Asus2 F#m
I'M HEARING VOICES TELLING ME
D9
THAT I SHOULD GET SOME SLEEP
E
BECAUSE TOMORROW MIGHT BE GOOD FOR SOMETHING
(Pre Chorus)
C#m D9
HOLD ON
Asus2 E
I'M FEELING LIKE I'M HEADED FOR A
C#m D9
BREAKDOWN
Asus2 E
I DON'T KNOW WHY
(Chorus)just strun the chords once
Asus2 D9
I'M NOT CRAZY I'M JUST A LITTLE UNWELL
I KNOW RIGHT NOW YOU CAN'T TELL
F#m E
BUT STAY AWHILE AND MAYBE THEN YOU'LL SEE
A DIFFERENT SIDE OF ME
Asus2 D9
I'M NOT CRAZY I'M JUST A LITTLE IMPAIRED
I KNOW RIGHT NOW YOU DON'T CARE
F#m E
BUT SOON ENOUGH YOU'RE GONNA THINK OF ME
D9 E
AND HOW I USED TO BE ME
Asus2 F#m
TALKING TO MYSELF IN PUBLIC
D9 E F#m
AND DODGING GLANCES ON THE TRAIN
D9 E
I KNOW
Asus2 F#m
I KNOW THEY'VE ALL BEEN TALKING 'BOUT ME
D9
I CAN HEAR THEM WHISPER
E
AND IT MAKES ME THINK THERE MUST BE SOMETHING WRONG
C#m D9
WITH ME
Asus2 E
OUT OF ALL THE HOURS THINKING
C#m D9
SOMEHOW
Asus2 E
I'VE LOST MY MIND
(CHORUS)
(BRIDGE)
F#5 D5
TALKING IN MY SLEEP
F#5 D5
PRETTY SOON THEY'LL COME TO GET ME
F#5 E5
THEY'LL BE TAKING ME AWAY
to get the riffs of the guitar solo while doing the bridge, You need to know a
bit of the A-pentatonic scale. I just play this scale in variations while we do
the bridge sounds cool too.
here's a tip:
A pentatonic 1 octave higher
e------------------------------------------------17----19---
B--------------------------------14----17----19-------------
G------------------------14---16----18----------------------
D----------------14---16------------------------------------
A-------14---16---------------------------------------------
E-14--17----------------------------------------------------
Chorus fade
that's all!! if u have corrections or comments/suggestions, pls email me at
[email protected] i hope that this would help u. btw, this is my first tab so BE NICE. :p





Ваше мнение



Капча