-----------------------------------------------------------------------------
Suffer me - Matchbox 20
-----------------------------------------------------------------------------
Tabbed by: Andy S.
Email: [email protected]
Tuning: Standard
Verse 1
Guitar 1(dist.)
she wanted something just like the real thing
e|---------------------------------------------------|
B|---------------------------------------------------|
G|-------2-------------------------------------------|
D|-------2--------------------2----------------------|
A|-------0--------------------2----------------------|
E|----------------------------0----------------------|
he needed love and it all worked out somehow
e|---------------------------------------------------|
B|---------------------------------------------------|
G|------2-------------------------------------2------|
D|------2--------------------2----------------2------|
A|------0--------------------2----------------0------|
E|---------------------------0-----------------------|
he knows that love is the key of emotion
e|----------------------------------------------|
B|----------------------------------------------|
G|----------------------------------------------|
D|---------------------------------2------------|
A|---------------------------------2------------|
E|---------------------------------0------------|
but he cant touch her shees to perfect now
e|------------------------------------------------|
B|------------------------------------------------|
G|-----------2------------------------------------|
D|-----------2-------------------2--2--2---2---2--|
A|-----------0-------------------2--2--2---2---2--|
E|-------------------------------0--0--0---0---0--|
Pre-Chorus
Guitar 2(acoustic)
but she wasnt like that then and he wasnt like that then
e|---------------0---------------0----------0----------------0---|
B|---------------1---------------3----------1----------------3---|
G|---------------0---------------0----------0----------------0---|
D|---------------2---------------0----------2----------------0---|
A|---------------3---------------2----------3----------------2---|
E|---------------0---------------3----------0----------------3---|
Guitar 1
e|--------------------------------------------------------------------------|
B|--------------------------------------------------------------------------|
G|------------------------------------------------------------------4h5--6--|
D|--------------------------------------------------------------------------|
A|--------------------------------------------------------------------------|
E|--------------------------------------------------------------------------|
they were everything
e|----------------0----------|
B|----------------1----------|
G|----------------0----------|
D|----------------2----------|
A|----------------3----------|
E|----------------0----------|
everything they need
e|----------------------0----|
B|----------------------3----|
G|----------------------0----|
D|----------------------0----|
A|----------------------2----|
E|----------------------3----|
Chorus
Guitar 1
Suffer me call on me now I will call on you
e|--------------------------------------------------------------|
B|--------------------------------------------------------------|
G|----2-2----------------5-----------------------5--------------|
D|----2-2--2-2-2-2--2----5---------5-------------5-------5------|
A|----0-0--2-2-2-2--2----3---------5-------------3-------5------|
E|---------0-0-0-0--0--------------3---------------------3------|
Guitar 2
e|----0------0-----------0---------0-------------0-------0------|
B|----1------0-----------1---------3-------------1-------3------|
G|----2------1-----------0---------0-------------0-------0------|
D|----2------2-----------2---------0-------------2-------0------|
A|----0------2-----------3---------2-------------3-------2------|
E|----0------0-----------0---------3-------------0-------3------|

Verse 2

A E A
she wasnt thinkin bout anyone else right then
E
but she new someone else would always come to mind
A E
cause they were strangers living in the feild
A E
they were scared when they heard talk about love
Pre-chorus
C G C em
but it wasnt like that then and It just wasnt like that then
C G
they took everything
C G
everything was for real
Chorus

A E
Suffer me
C G
call on me now
C em
i will call on you
A E
suffer me
C G
call on me now
C em
i will call on you
C em
ill call on you
verse 3
A E
oh yes they were thining out
A E A
on that moment they were afraid
A E
started thinking there one of them would leave
C G
but she said
A E
suffer me
=============================================================================





Ваше мнение



Капча