This is just the intro to Soul.

-0-----------------------------------|
---4--2--0--2------------------------|
---------------1------0p1---0p1------|
------------------2---------2--------|
-------------------------------------|
-------------------------------------|

-0-----------------------------------|
---4--2--0--2------------------------|
---------------1------0p1---0p1------|
------------------2---------2--------|
-------------------------------------|
-------------------------------------|

-0-----------------------------------|
---4--2--0--2------------------------|
---------------1------0p1---0p1------|
------------------2---------2--------|
-------------------------------------|
-------------------------------------|





Ваше мнение



Капча