Disease
-------
by Matchbox 20
From the album "More Than You Think You Are" (2002)
Transcribed by Antti Iiskola
For Bon Jovi tabs, visit www.freezezone.com
Intro:
------
Gtr. 1 (with Wah-wah)
|--------------------------------------------------|
|--------------------------------------------------|
|-4-4-4--4-4-4--6-6-6--6-6-6--5-5-5--5-5-5--6-6-6--|
|--------------------------------------------------|
|--------------------------------------------------|
|--------------------------------------------------|
then
Gtr.2
|----------------------|
|----------------------|
|---------6--4---------|
|--4-h-6--6--6---------|
|--4-h-6---------------|
|----------------------|

Gtr.1 continues:
|------------------------------------------------|
|--------------------------------------4-3-------|
|-4-4-4--4-4-4--6-6-6--6-6-6--5-5-5--5------6~---|
|------------------------------------------------|
|------------------------------------------------|
|------------------------------------------------|
Gtr.2 plays chords.

"Disease"
Intro:
G#m C#m D#7 G#m
Verse:
G#m G#m C#m G#m
Bridge:
E F# G#m C#m
E D#7
Chorus:
G#m C#m D#7 G#m
C - part:
C#m G#m C#m G#m C#m D#7

Disease
-------
(Rob Thomas)
Feels like you made a mistake [Verse]
...
You left a stain [Verse]
..
No one's ever turned you over [Bridge]
...
I got a disease [Chorus]
...
Feels like you're making a mess [Verse]
...
Every little thing you do is tragic [Bridge]
...
I got a disease [Chorus]
...
I think that I'm sick...
Yeah well free of my disease [C-part]
...
I got a disease [Chorus]
...
I think that I'm sick
...





Ваше мнение



Капча