-------------------------------------------------------------------------------
All I Need - Matchbox Twenty
-------------------------------------------------------------------------------
Tabbed by: Tom Sprankling
Email: [email protected]
Tuning: standard tuning with a capo on the first fret.
Intro- It's not perfect but it'll do.
play G chord through the intro (If you're playing with two guitars)
e|------------------------------|
B|------0--------0--------------|
G|--0h2----2--0-----0-----------|
D|---------------------0--------|
A|------------------------------|
E|------------------------------|
G
Everywhere someone's getting over,
Em
Everybody cries and sometimes,
Am C D
You can still lose even if you really try,
G
Talking 'bout the dream like the dream is over,
Em
Talk like that won't get you nowhere,
Am C
Everybody's trusting in the heart,
D
Like the heart don't lie.
Chorus:
G B Em C
But that's all that I need,
G B Em C
Someone else to cling to,
G B Em C
Someone I can lean on until,
Am D
I don't need to,
G B
Just stay all through the night,
Em C
And in the morning let me down,
G B Em C C D
Cuz that's all that I need right now.
Verse 2:
Everywhere someone's getting over,
Everybody's lied to someone,
People still use other people,
With a crooked smile,
All around the world,
There's a sinking feeling,
Out there right now,
Someone's feeling,
Down on themselves,
And don't know why.
Chorus:
G B Em C
But that's all that I need,
G B Em C
Someone else to cling to,
G B Em C
Someone I can lean on until,
Am D
I don't need to,
G B
Just stay all through the night,
Em C
And in the morning let me down,
G B Em C C D
Cuz that's all that I need right now.
Bridge: I havn't figured that out yet.
but i hope one of you guys will
now that i've figured most of it out.
Chorus: See above.
Outro: Same as intro. final chord is G
Chords:
G Em Am C D B
e|-3---0---0---0---0---2------|
B|-3---0---1---1---2---4------|
G|-0---0---2---0---3---4------|
D|-0---2---2---2---0---4------|
A|-2---2---0---3-------2------|
E|-3---0---------------2------|
Happy Playing!!!!!!!!
Shout out to Pete Lees!!!!
| / slide up
| slide down
| h hammer-on
| p pull-off
| ~ vibrato
| + harmonic
| x Mute note
===============================================================================





Ваше мнение



Капча