Когда я умру…
(инструментал) А.Большаков
Гитара 1:
4|------5------5------5------5-|------7------7------7------7-|------8------8------8------8-|
5|---5------5-------5-----5----|---7------7-------7-----7----|---8------8-------6------6---|
6|-3------3------3------3------|-5------5------5------5------|-6------6------6------6------|
1|-------------------------------|
2|-------------------------------|
3|-------------------------------|
4|------10----10-----8------7----|
5|---10----10------8------7------|
6|-8------8-------6------5-------|
1|-------------------------------|-------------------------------|-------------------------------|
2|-------------------------------|-------------------------------|-------------------------------|
3|-------------------------------|-------------------------------|-------------------------------|
4|------5------5------5------5-|------7------7------7------7-|------8------8------8------8-------|
5|---5------5-------5-----5----|---7------7-------7-----7----|---8------8-------6------6---------|
6|-3------3------3------3------|-5------5------5------5------|-6------6------6------6------------|
1|-------------------------------|
2|-------------------------------|
3|-------------------------------|
4|------10----10-----8------7-|
5|---10----10------8------7---|
6|-8------8-------6------5-----|
Гитара 2: (гитара 1 продолжает играть)
1|------------------------------------- |
2|------------------------------------- |
3|-12-10-----------------------8-10-|




Ваше мнение



Капча