-Mark Knopfler-
-What It Is (intro)-
Standard Tuning
EADGBE

Its not nearly as hard as it looks,
great thing about this song is you can play it something near what
the original sounds like and it'll still sound just as good :)

-|---------------------------------------|
-|-10------------------10----------10----|
-|--9h11-11-11p9-----9h11-9----9-9h11-9--|
-|----------------11--------11-----------|
-|---------------------------------------|
-|---------------------------------------|

--------------------------------|
-10-----------------10----------|
--9h11-11-11p9----9h11-9----9-7-|
---------------11--------11-9-7-|
--------------------------------|
--------------------------------|

-----------------------------------------------|
-10------------------10------10----------------|
--9h11-11-11p9-----9h11-9--------9-9h11(13)-9--|
----------------11--------11-------------------|
-----------------------------------------------|
-----------------------------------------------|

-----------------------------------|
-10-----------------10-------------|
--9h11-11-11p9----9h11-9----9>7-9--|
---------------11--------11-9>7-9--|
-----------------------------------|
-----------------------------------|

Enjoy :)

Tabbed By Steve Cooper




Ваше мнение



Капча

Рекомендуем