Sultans of Swing Mark Knopfler
tuning: standard
h=hammer on
p=pull off
~=vibrato
tabbed by Johan Lindahl.
e--------------------------------|
B----------10-------------10~----|
G---10-h12----h12-p10------------|
D---------------------h12--------|
A--------------------------------|
E--------------------------------|
e----------------------|
B---10-----------11~---|
G------h12-p10---------|
D----------------------|
A----------------------|
E----------------------|
e-----------------------------------|
B----------10-----------------------|
G---10-h12----h12-p10---12~--10-12~-|
D-----------------------------------|
A-----------------------------------|
E-----------------------------------|
e--------------------------------|
B----------10-------------10~----|
G---10-h12----h12-p10------------|
D---------------------h12--------|
A--------------------------------|
E--------------------------------|
e----------------------|
B---10-----------11~---|
G------h12-p10---------|
D----------------------|
A----------------------|
E----------------------|
e---10--------10-------------------|
B------13-p11----13~----------13~--|
G---------------------12-12~-------|
D----------------------------------|
A----------------------------------|
E----------------------------------|

e--------------------------------|
B----------10-------------10~----|
G---10-h12----h12-p10------------|
D---------------------h12--------|
A--------------------------------|
E--------------------------------|
e----------------------|
B---10-----------11~---|
G------h12-p10---------|
D----------------------|
A----------------------|
E----------------------|
e------------------------------------------------|
B----------10------------------------10--11--13~-|
G---10-h12----h12-p10---12~--10--12--------------|
D------------------------------------------------|
A------------------------------------------------|
E------------------------------------------------|

e--------------------------------|
B----------10-------------10~----|
G---10-h12----h12-p10------------|
D---------------------h12--------|
A--------------------------------|
E--------------------------------|
e----------------------|
B---10-----------11~---|
G------h12-p10---------|
D----------------------|
A----------------------|
E----------------------|
e---10--------10-----------------------|
B------13-p11----13~-------------------|
G---------------------12-12~--14~--14--|
D--------------------------------------|
A--------------------------------------|
E--------------------------------------|
e--------------------------------|
B----------10-------------10~----|
G---10-h12----h12-p10------------|
D---------------------h12--------|
A--------------------------------|
E--------------------------------|
e----------------------|
B---10-----------11~---|
G------h12-p10---------|
D----------------------|
A----------------------|
E----------------------|
e--------------------------------------------|
B----------10--------------------------------|
G---10-h12----h12-p10---12~--10-12~--14~--14-|
D--------------------------------------------|
A--------------------------------------------|
E--------------------------------------------|
e--------------------------------|
B----------10-------------10~----|
G---10-h12----h12-p10------------|
D---------------------h12--------|
A--------------------------------|
E--------------------------------|
e----------------------|
B---10-----------11~---|
G------h12-p10---------|
D----------------------|
A----------------------|
E----------------------|

e---10--------10---------------13-12-------|
B------13-p11----13~-----------------15-13-|
G---------------------12-12~---------------|
D------------------------------------------|
A------------------------------------------|
E------------------------------------------|

e--------------------------------|
B----------10-------------10~----|
G---10-h12----h12-p10------------|
D---------------------h12--------|
A--------------------------------|
E--------------------------------|
e----------------------|
B---10-----------11~---|
G------h12-p10---------|
D----------------------|
A----------------------|
E----------------------|
e----------------------------------------|
B---10---------------------10-11-13~-13~-|
G------h12-p10--12~--10-12---------------|
D----------------------------------------|
A----------------------------------------|
E----------------------------------------|
e--------------------------------|
B----------10-------------10~----|
G---10-h12----h12-p10------------|
D---------------------h12--------|
A--------------------------------|
E--------------------------------|
e----------------------|
B---10-----------11~---|
G------h12-p10---------|
D----------------------|
A----------------------|
E----------------------|
e---10--------10---------------13-12-------|
B------13-p11----13~-----------------15-13-|
G---------------------12-12~---------------|
D------------------------------------------|
A------------------------------------------|
E------------------------------------------|




Ваше мнение



Капча

Рекомендуем