Mark Knopfler
The Ragpicker's Dream
Standard Tuning
E--------------------------------|
B---------h5-4p2(v)--------------|
G--------------------4s3s4-4-----|
D--2p4s6---------------------2---|
A--------------------------------|
E--------------------------------|
From the 6, snap quickly to the 5 on the B string,
then lull briefly before you drop to the 4.
E--------------------------------|
B---------h5s7-7p5p4p2-----------|
G----------------------4p3h4-----|
D--2p4s6-------------------------|
A--------------------------------|
E--------------------------------|
I've been listening to the song and keep hearing
this strange slide thing going, which sounds kind
of like this:
B--5s4s5-------------------
If you hit the 5 a little hard, then drag your finger
to the four and back to the five without striking the
string again with your strumming hand, it should produce
that sound.
p == pull
s == slide
h == hammer-on
v == vibrato




Ваше мнение



Капча