marcy playground
wave motion gun
album: shapeshifter
submitted by m. burgess
VERSES:
E D#* c# B
e ----x---- ----x---- ----x---- ----x----
B ----x---- ----x---- ----x---- ----x----
G ----9---- ----8---- ----6---- ----4----
D ----6---- ----6---- ----7---- ----4----
A ----x---- ----x---- ----x---- ----0----
E ----x---- ----x---- ----x---- ----0----
CHORUS: Power Chords
C G# A E
e ----x---- ----x---- ----x---- ----x----
B ----x---- ----x---- ----x---- ----x----
G ----x---- ----x---- ----x---- ----2----
D ----11--- ----6---- ----7---- ----2----
A ----11--- ----6---- ----7---- ----2----
E ----9---- ----4---- ----5---- ----0----
VERSE
E D#* C# B
Backstage, behind the curtain there's an
E D#* C# B
Armchair with a secret engine, and you
E D#* C# B E
Climb in, and get naked watchin' Starblazers
CHORUS
C G# A E
Wish you had their amenities
C G# A E
To fend off your enemies
C G# A E C
In one big blast from your Wave Motion Gun
[Ooo-oooh Ooh]
VERSE
Reach down to the secret panel, there's a
Whole raft of little buttons, and you
Pick one and hope it takes you to Mars
CHORUS
Soon there'll be no pain again
You feel like yourself again
You shoot up your heroin
In one big blast from your Wave Motion Gun
[Ooo-oooh Ooh]
VERSE
Downstairs, behind the oven there's a
dark hole where the gas comes in you know you should
Climb in, it'll get you there so much faster
CHORUS
Soon there'll be no pain again
You feel like yourself again
You shoot up your heroin
In one big blast from
In one big shot from
In one big blast from
In one big shot... from your Wave Motion Gun!
[Ooo-oooh Ooh]


Ваше мнение



Капча