marcy playground
sherry fraser
album: marcy playground
submitted by matt b.
G C D
e ----3---- ----0---- ----2----
B ----0---- ----1---- ----3----
G ----0---- ----0---- ----2----
D ----0---- ----2---- ----0----
A ----2---- ----3---- ----0----
E ----3---- ----0---- ----x----
riff 1
e ------------------
B ------------------
G ------------------
D ------------------
A -------0--2-------
E ----3-------------
G C
Oo I saw stars falling all around her head
G D
Red, gold, and blue
C G
Sherry Fraser, where are you?
G C
'Cause I saw stars falling all around your head
G D
When we were young
C G
Sherry Fraser, where have you gone?
(riff 1) C G
We're all wondering, when will you come back
D C G
and play...someday? Sherry yeah.
D C G D C
The Mad Hatter, he waits for Alice
G D C G D C (3x)
to come to tea again.
G D C G D C
He waits forever for his young lover
G D C
and always wondering.
G C
Will I see stars falling all around your head
G D
When you return?
C G
Sherry Fraser, what have you learned?
(riff 1) C G
We're all wondering when will you come back
D C G
and play...someday. And please do come back
D C G
and play...someday. Please do come back
D C
and play...someday
G
Sherry yeah.




Ваше мнение



Капча