Here is a correct tab of Sex and Candy:
Verse: B5 G5 Gb5 (right before Chorus)
e--------------------------------------/---------
B--------------------------------------/---------
G-4-4--4-4-4-4--4-4--------------------/---------
D-4-4--4-4-4-4--4-4--5-5-5-5-\-4-4-4-4-/-4-4-4-4-
A-2-2--0-2-0-2--2-2--5-5-5-5-\-4-4-4-4-/-4-4-4-4-
E--------------------3-3-3-3-\-2-2-2-2-/-2-2-2-2-
Hangin' 'round...
Chorus: B5 G5 A5 (end of chorus)
e------------------------------------------------/---------------
B------------------------------------------------/---------------
G-2h4p2-----4-4--4-4-4-4----------------2-2--2-2-/-2-2-2-2-2-2-2-
D------4b-2-4-4--4-4-4-4--5-5--5-5-5-5--2-2--2-2-/-2-2-2-2-2-2-2-
A-----------2-2--2-2-2-2--5-5--5-5-5-5--0-0--0-0-/-0-0-0-0-0-0-0-
E-------------------------3-3--3-3-3-3-----------/---------------
I smell...
Post-Chorus: D D D D D A A A A A B B B B G G G G G (Gb5 x8) End song on D
Chords:
D [xx0232]
A [x02220]
B [x24442]
G [320033]
Gb5 [244xxx]
Song Progression:
Verse x 4 (end w/ 8 Gb's)
Chorus x 3 (end w/ 7 extra A5's)
Post-Chorus x 2 (end w/ 8 Gb's)
Verse x 4 "
Chorus x 3 "
Post-Chorus x 3 "
Chorus x 3 "
Post-Chorus x3 (end on D)
Questions? Comments? Well keep them to yourself 'cause I don't have e-mail!




Ваше мнение



Капча

Рекомендуем