e: Thu, 26 Feb 1998 20:16:45 -0700
From: Michael Babott
Subject: Sex_and_Candy.txt

Date:Mon, 09 Dec 1998 16:52:00
From: [email protected] (Michael Babott)
Thanks to Jon Blaskovich for showing me this song!!!
SEX AND CANDY
By: Marcy Playground
Eadgbe
Cords used: B (-2443-)
G (355433)
F#(244222)
A (-02220)
D (--023- )
Note: If you want, you can sub. these with power chords it you want.
Riff #1
e|------------------------|--3--3--3--3---2---2---2---2|
B|-3--3--3--3--3--3--3--3-|--3--3--3--3---2---2---2---2|
G|-4--4--4--4--4--4--4--4-|--4--4--4--4---2---2---2---2| [Repeat 4X]
D|-4--4--4--4--4--4--4--4-|--5--5--5--5---4---4---4---4|
A|-2--2--2--2--2--2--2--2-|--5--5--5--5---4---4---4---4|
E|------------------------|--3--3--3--3---2---2---2---2|
V-1 hanging around downtown by myself and I had
so much time to sit and think about myself and then there she
was like double cherry pie, yeah there she
was like disco super fly
V-2 hanging around downtown by myself and I had
too much caffine and I was thinking about myself and then there she
was in platform double suade, yeah there she
was like disco lemmonade
Riff #2
e|-----------|
B|-----------|
G|-----------| [Repeat 2X]
D|-4--4--4--4|
A|-4--4--4--4|
E|-2--2--2--2|
Riff #3
e|--------------------|----------3---33---0---0--|
B|3---3---------------|-3---33---3---33---2---2--|
G|2h4-2----2---2------|-4---44---4---44---2---2--|
D|---------2h4-2------|-4---44---5---55---2---2--|[Repeat 3X]
A|--------------------|-2---22---5---55---0---0--|
E|--------------------|----------3---33----------|
I smell sex and candy here uh hu
Who's that lounging in my chair uh hu
Who's that casting deavous stares in my direction
e|-0------0---0------0|
B|-2------2---2------2|
G|-2------2---2------2|
D|-2------2---2------2|[Repeat 3X]
A|-0------0---0------0|
E|--------------------|
momma this surely is a dream
Riff #4
e|----------------------|------------------------|
B|-3--3---33------------|--3--3---33---3--3--33--|
G|-2--2---22---2--2--22-|--4--4---44---4--4--44--|
D|-0--0---00---2--2--22-|--4--4---44---5--5--55--|
A|-------------0--0--00-|--2--2---22---5--5--55--|
E|----------------------|--------------3--3--33--|
Yeah yeah momma this surely is a dream
e|----------------------|------------------------|
B|-3--3---33------------|--3--3---33---3--3--33--|
G|-2--2---22---2--2--22-|--4--4---44---4--4--44--|
D|-0--0---00---2--2--22-|--4--4---44---5--5--55--|
A|-------------0--0--00-|--2--2---22---5--5--55--|
E|----------------------|--------------3--3--33--|
to you
[Now play Riff #2]
And Thats it!
Here is another Version (By Me)
B G F#
hanging around downtown by myself and I had
B G F#
so much time to sit and think about myself and then there she
B G F#
was like double cherry pie, yeah there she
B G F#
was like disco super fly
B G A
I smell sex and candy here uh hu
B G A
Who's that lounging in my chair uh hu
B G A
Who's that casting deavous stares in my direction
A
momma this surely is a dream
D A B G
Yeah yeah momma this surely is a dream
D A B G
to you
A
B G F#
hanging around downtown by myself and I had
B G F#
too much caffine and I was thinking about myself and then there she
B G F#
was in platform double suade, yeah there she
B G F#
was like disco lemmonade
B G A
I smell sex and candy here uh hu
B G A
Who's that lounging in my chair uh hu
B G A
Who's that casting deavous stares in my direction
A
momma this surely is a dream
D A B G
Yeah yeah momma this surely is a dream
D A B G
to you
D A B G
Yeah yeah momma this surely is a dream
D A B G
yeah
A
I smell sex and candy here uh hu
B G A
Who's that lounging in my chair uh hu
B G A
Who's that casting deavous stares in my direction
A
momma this surely is a dream
D A B G
to you yeah momma this surely is a dream
D A B G
yeah momma this surely is a dream
D A B G
yeah yeah momma this must be my dream
Enjoy!
Michael Babott
([email protected])




Ваше мнение



Капча

Рекомендуем