Artist: Marcy Playground
Album: Shapeshifter
Song: Secret Squirrel
Very easy, just listen while youre learning
Intro:
E:|-----------|-----------|-----------|
B:|-----------|-----------|-----------|
G:|-----------|-----------|-----------|
D:|-----------|-----------|-----------|
A:|-----------|-----------|-----------|
E:|-0-0-1-0-1-|-4-4-5-4-5-|-7-7-6-7-6-|
Main Riff
E:|-----------|-----------| E:|---------|---------|
B:|-----------|-----------| B:|---------|---------|
G:|-----------|-----------| G:|-5-5-5-5-|-4-4-4-4-|
D:|-------0---|-------0---| then D:|-5-5-5-5-|-4-4-4-4-|
A:|-----2---2-|-----2---2-| A:|-3-3-3-3-|-2-2-2-2-|
E:|-0-0-------|-0-0-------| E:|---------|---------|
Post Verse:
(He can breath in water part)
G:|---6-|---6-|---6-|---6-|
D:|---7-|---7-|---7-|---7-|
A:|-7-7-|-7-7-|-7-7-|-7-7-|
E:|-5-5-|-5-5-|-5-5-|-5-5-|
Bridge:
D:|-----7-------9---|-----2-----2---2-|
A:|-----7-------9---|-----2-----2---2-|
E:|-5-5-5-5-7-7-7-7-|-0-0-0-0-0-0-0-0-|
End on open Em Let ring
D:|-2---|
A:|-2---|
E:|-0---|




Ваше мнение



Капча