marcy playground
rebel sodville
album: shapeshifter
submitted by m.b.
E|---0----0--------| 1.) distortion
B|---0----3--------| % 2.) acoustic
G|---0----2--------| 3.) clean (electric)
D|---2----0--------| Intro
A|---2-------------|
E|-0-----------3-2-|
E|----------|-------2---|-------2---|-------------|
B|-------0--|---------3-|---------3-|-------0-----| Verse
G|----------|---0h2-----|---0h2-----|-------------|
D|----------|-0---------|-0---------|-------------| 3.)
A|---0h2---2|-----------|-----------|---0h2---2---|
E|-0--------|-----------|-----------|-0---------0-|
E|---------------------|
B|---------------------| Chorus
G|------7-7-------7-7--|
D|-5-5--7-7--5-5--7-7--| 2.)
A|-5-5--5-5--5-5--5-5--| 3.)
E|-3-3-------3-3-------|
Solo:
E|-------------------------------------------------|
B|-------------------------------------------------|
G|--------7p6h7---------9p7h9--9-7-5-4-2--0-0-2-4--| /D
D|---------------5p4h5-----------------------------|
A|-7p6h7-------------------------------------------|
E|-------------------------------------------------|
E|-------------------------------------------------|
B|-----------------------------------------20-19-17|
G|-5-7-9-7-9-12--12-14-16-17-19--19^21-19----------| /D
D|-------------------------------------------------|
A|-------------------------------------------------|
E|-------------------------------------------------|
E|----------------------|----------------------------------|
B|-19p17-15-13-13-12-10-|----------------------------------|
G|----------------------|----------------------------------| /D
D|----------------------|-12-12-12-10-10-10-9-9-97-7-7--7-|
A|----------------------|----------------------------------|
E|----------------------|----------------------------------|
E|----------------------------------------------|
B|----------------------------------------------| 2.) Plays chorus
G|---12-12-12--(into nothing)------------------| 3.) Plays this part.
D|---12-12-12-----------------10-10-10-/-12-12-|
A|---10-10-10-----------------10-10-10-/-12-12-|
E|-0----------------------------8--8--8-/-10-10-|
-----.Solo End.-----
Post Solo... 2.)
E|----------|-------0-|---------|-------0--|
B|-------0--|---------|-------0-|----------|
G|----------|---------|---------|----------|
D|----------|---------|---------|----------|
A|---0h2----|---0h2---|---0h2---|---0h2----|
E|-0--------|-0-------|-0-------|-0--------|




Ваше мнение



Капча