marcy playground
opium
album: marcy playground
submitted by matt burgess
Chords used:
F#M A A5 G D D5 E
|---2---|---0---|---x---|---3---|---2--|--x---|---0---|
|---3---|---2---|---x---|---0---|---3--|--x---|---0---|
|---4---|---2---|---x---|---0---|---2--|--x---|---1---|
|---4---|---2---|---7---|---0---|---0--|--7---|---2---|
|---2---|---0---|---7---|---2---|---x--|--5---|---2---|
|---2---|---0---|---5---|---3---|---x--|--x---|---0---|
During the Verses, the G is played like this:|-3-3------3-3-|
|-0-0------0-0-|
|-0-0------0-0-|
|-0-0----------|
|-2-2----------|
|-3-3--3-0-----|
Intro:
F#M A G D A (2x)
1st Verse:
F#M A G D A
Blue like ......
F#M A G D A
I'm ......
E F#M D A
I'm so ......
E F#M D A
I'm in .....
G D A D
oh ....

Bridge:
(distortion)
D5
Maaaao
A5
Maaaao

E F#M D A
I'm so ......
E F#M D A
I'm in ...
G D A D
oh .....




Ваше мнение



Капча