marcy playground
one more suicide
album: marcy playground
submitted by matt burgess
One More Suicide
Em Am C G D
e ----0---- ----0---- ----0---- ----3---- ----2----
B ----0---- ----1---- ----1---- ----0---- ----3----
G ----0---- ----2---- ----0---- ----0---- ----2----
D ----2---- ----2---- ----2---- ----0---- ----0----
A ----2---- ----0---- ----3---- ----2---- ----0----
E ----0---- ----x---- --------- ----3---- ---------
You can play the chords with hammer-ons (or not):
Em Am C
e --0---0-0-0----0-0----0---0-0-0-----0-0----0---0-0-0-----0-0--
B --0---0-0-0----0-0----1---1-1-1-----1-1----1---1-1-1-----1-1--
G --0---0-0-0----0-0----2---2-2-2-----2-2----0---0-0-0-----0-0--
D --2---2-2-2----2-2----2---2-2-0h2---2-2----2---2-2-0h2---2-2--
A --2-------0h2--2-2----0-------------0-0----3---3-3-3-----3-3--
E --0-------0---------------------------------------------------
G etc...
e --3---3-3-3--------
B --0---0-0-0--------
G --0---0-0-0--------
D --0---0-0-0--------
A --2-------2--------
E --3-------3--2--0--
Em Am
Christopher O'Malley went out on a bridge
C G
Down in Chehalis
Em Am
And clutching his bible and a letter from her
C G
Fell into the river
Chorus:
Am G Am G
Pity no one was there, no angels in the air
Am G
And the morning paper ran:
C Am G D G
One more suicide, yeah
Em Am
His mama stayed by the river side
C G
Down in Chehalis
Em Am
And clutching her bible and a letter from him
C G
Fell into crying
(Chorus)
(Instrumental, play chords for verse)
(Chorus)
C Am G D G
One more suicide, yeah
C Am Em
One more suicide, yeah.


Ваше мнение



Капча