---------------------------------------------------------------------
GONE CRAZY - Marcy Playground
---------------------------------------------------------------------

By: Parko

I know this is only the intro but they play it a few times during the song
aswell. Just listen to the album to figure out the timing.

e|---4---4---2---4---------5----5----2----2-------------------------|
B|------------------------------------------------------------------|
G|---4---4---2---4---------6----6----2----2-------------------------|
D|------------------------------------------------------------------|
A|------------------------------------------------------------------|
E|------------------------------------------------------------------|

e|---5---5---2---2---5-----------2----4-----------------------------|
B|--------------------------5-----------------4-------5-------------|
G|---6---6---2---2---6-----------2----4-----------------------------|
D|--------------------------6--------------4------6-----------------|
A|------------------------------------------------------------------|
E|------------------------------------------------------------------|

=====================================================================




Ваше мнение



Капча