marcy playground
dog and his master
album: marcy playground
submitted by m. burgess
G D
e ----3---- ----2----
B ----3---- ----3----
G ----0---- ----2----
D ----0---- ----0----
A ----2---- ---------
E ----3---- ---------
riff 1

e -------------------3----------3----
B -------------------3----------3----
G ---0-x-x-0-x-x-----0---0-0----0----
D ---2-x-x-0-x-x-0-0-0---2-0----0----
A ---3-x-x-2-x-x-2-2-2---3-2-0--2----
E ---------------3-3-3----------3----
|_______|
|
riff2
Intro:
riff 1 (2x)
--riff 1-->
Hey little boy, see the Johnny and Janes
--riff 1-->
Hey little boy, you see them all go insane
--riff 1-->
Look and see Spot run 'cause he pissed in the hallway
--riff 1-->
Run Spot run, run away from it all
Chorus:
G
And I say:
D G
You can be any way that you wanna be
D riff 2 riff 1 (2x)
How I'll be, that's up to me.
--riff 1-->
Hey little girl, see them all run around
--riff 1-->
Hey little girl, you see them all tumble down
--riff 1-->
Johnny will boss, Janey will buy
--riff 1-->
Spot will beg but everyone dies
(chorus)
G(distorted) 4 bars
--riff 1-->
One little, two little, three little idiots
Four little, five little, six little idiots
--riff 1-->
Seven little, eight little, nine little idiots
All in suit and tie
--riff 1-->
One little, two little, three little idiots
Four little, five little, six little idiots
--riff 1-->
Seven little, eight little, nine little idiots
All dressed up to die
(chorus)




Ваше мнение



Капча