Intro:
e----------3-1------------------------1----5-3--------------
B-------1-----------------3-1---3-1-3---3------4-3----------
G----2-----------------1---------------------------------2--
D-2-----------------2---------------------------------2-----
A----------------2------------------------------------------
E-----------------------------------------------------------

е---3-1------------------------1----------------------------
B1-----------------3-1---3-1-3---3--3-1------8-6------------
G---------------1-----------------------3-0------8-5--------
D------------2----------------------------------------------
A---------2-------------------------------------------------
E----------------------------------------------------------- C F G
К1: Она жила здесь слишком долго
C F G
Очень часто была мода
Убивать из труб и камней
Резать свои косы в ванной
Крови можно много выжать
Если только хочешь выжить
Окунуться с головой
Под душ из свинца совсем нагой

F G A
Пр: Вырви оси из орбит
И верь в то что кто-то будет
В Новый Год убит

К2: Выйди на середину моста
Раскрой глаза ноги ресницы кудри
Посмотри какая краса
И белым порошочечеком нос напудри

Пр: Вырви оси из орбит
И верь в то что кто-то будет
В Новый Год убит

Третий куплет играется либо с барре на втором ладу, либо с capo там же.
D G A
К3: Ты засни от этих трав
Проспи всю эру водолея
Первой станешь ты тогда
Кто умрет в Новый Год в новое время

Проигрыш:
e-----------------------------------------------------------B-----------------------------------------------------------G-----2--------------2-----------------2-------4------------
D---3---3---5-7----3---3----5---7----3---3---5---5-7--------
A-----------------------------------------------------------E-1-------3---5--1--------3---5----1-------3-------5--------
Пр: Вырви оси из орбит
И верь в то что кто-то будет
В Новый Год убит






Ваше мнение



Капча