Hi Players!Standarttuning,find the rhytmus yourself
Verse
e--------------------------------------------------------|
b--------------------------------------------------------|
g--------------------------------------------------------|
d---2------8------------2----------8---------------------|
a---2------8------------2----------8---------------------|
e---0------6------------0----------6---------------------|
Refrain
e--------------------------------------12pull up---------|
b--------------------------------------------------------|
g--------------------------------------------------------|
d---2------8-------7------5------2-----------------------|
a---2------8-------7------5------2-----------------------|
e---0------6-------5------3------0-----------------------|




Ваше мнение



Капча