Artist: Manowar
Album: Warriors Of The World - United
Song: Track #8 - Warriors Of The World
Transcribed by Wishmaster KK ([email protected])
You may change content or anything if ya like.
Mail me if something's wrong :)
(u may use notepad with no wordwrap turned on
- Please note that there are lots of palm muted chords that I
may not have written... If u know the song, u know how to mute it ;)
- Tune down whole step! (D-G-C-F-A-D)
- BPM/tempo: 174 (according to Cubase5)
- signature: 4/4 if not spesified.
(drums)
START;
E|Drums...---------------------------------------------------------|
B|-----------------------------------------------------------------|
G|-----------------------------------------------------------------|
D|---------.---------------.---------------.---------------.-------|
A|-----------------------------------------------------------------|
E|-.---------------.---------------.---------------.---------------|
(bass enter...)
E|-----------------------------------------------------------------|
B|-----------------------------------------------------------------|
G|-----------------------------------------------------------------|
D|---------.---------------.---------------.---------------.-------|
A|-7-------------------------------------------------------------|
E|-0---0-0-0---0-0-0---0-0-0---0-0-0---0-0-0---0-0-0---0-0-0---0-0-|
Guitar enter 2/4
E|-----------------------------------------------------------------|--------.---------------.---------|
B|-vv15(12)-/---/---/--(20)----------------------------------------|-pick ----------------------------|
G|-vv14(11)-/---/---/--(19)----------------------------------------|----slides------------------------|
D|---------.---------------.---------------.---------------.-------|----------------------------------|
A|-----------------------------------------------------------------|----------------------------------|
E|-.---------------.---------------.---------------.---------------|-.---------------0--slow dive--|
Press fret 14+15, dive to fret 11+12 before pickin', and slowly
up to fret 19+20...
E|-----------------------------------------------------------------|
B|-----------------------------------------------------------------|
G|-5--------------(5)-------------(5)-------------(5)--------------|
D|-5--------------(5)-------------(5)-------------(5)--------------|
A|-3--------------(3)-------------(3)-------------(3)--------------|
E|-----------------------------------------------------------------|
E|-----------------------------------------------------------------|-----------------|
B|-----------------------------------------------------------------|-----------------|
G|-----------------------------------------------------------------|-----------------|
D|-2--------------(2)-------------(2)-------------(2)--------------|-(2)-----------|
A|-2--------------(2)-------------(2)-------------(2)--------------|-(2)-----------|
E|-0--------------(0)-------------(0)-------------(0)--------------|-(0)-------------|

E|-----------------------------------------------------------------|
B|-----------------------------------------------------------------|
G|-----------------------------------------------------------------|
D|-2---------------2---------------2-------------------------------|
A|-2---------------2---------------2-------------------------------|
E|-0-0-0-0-0-0-0-0-0---0-0-0-0-0-0-0---0-0-0-0-0-0-0---0-0-0---0-0-|
m------------ m------------------------------------------
E|-----------------------------------------------------------------|
B|-----------------------------------------------------------------|
G|---------------------------------5--------------(5)--------------|
D|---------------------------------5--------------(5)--------------|
A|---------------------------------3--------------(3)--------------|
E|-0---0-0-0---0-0-0---0-0-0---0-0---------------------------------|
E|-----------------------------------------------------------------|
B|-----------------------------------------------------------------|
G|-12--9-----------------------------------------------------------|
D|-12--9-----------------------------------------------------------|
A|-10--7-----------------------------------------------------------|
E|-----------------------------------------------------------------|
E|-----------------------------------------------------------------|
B|-a.h-------------------------------------------------------------|
G|-5-------------------------------------------------------------|
D|-----------------------------------------------------------------|
A|-----------------------------------------------------------------|
E|-----------------------------------------------------------------|
E|-----------------------------------------------------------------|
B|-----------------------------------------------------------------|
G|-5---------------------------------------------------------------|
D|-5---------------------------------------------------------------|
A|-3---------------.---3-3-3-3-3-3-3---3-3-3---3-3-3---3-3-3---3-3-|
E|-----------------------------------------------------------------|
E|-----------------------------------------------------------------|
B|-----------------------------------------------------------------|
G|-12--9-----------------------------------------------------12----|
D|-12--7-----------------------------------------------------12----|
A|-10--7-----------------------------------------------------10----|
E|-----------------------------------------------------------------|
Prelude to verse
Guit#2 follow cords, but mutes
E|-----------------.-----------------------------------------------|
B|X----------------------------------------------------------------|
G|-9-------9-------11------12------7-------7------(7)--------------|
D|-9-------9-------11------12------7-------7------(7)--------------|
A|X7-7-7-7-7-------9-------10------5-5-5-5-5------(5)--------------|
E|-----------------------------------------------------------------|
mmmmmm mmmmmm
Repeat 2x 2/4
E|-----------------------------------------------------------------|----------------------------------|
B|----------------------------------------------------------------X|----------------------------------|
G|-5-------5-------12------11------9--------------(9)---------12---|----------------------------------|
D|-5-------5-------12------11------9--------------(9)---------12---|-dive slowly----------------------|
A|-3-3-3-3-3-------10------9-------7--------------(7)---------10--X|-(7) -----------------------///|
E|-----------------------------------------------------------------|-(0) -----------------------///|
mmmmmm 1. time
only
Verse 1:
All bass palm muted
E|-----------------------------------------------------------------|
B|-(bass)----------------------------------------------------------|
G|-----------------------------------------------------------------|
D|-----------------------------------------------------------------|
A|-----------------------------------------------------------------|
E|-0---0-0-0---0-0-0---0-0-0---0-0-0---0-0-0---0-0-0---0-0-0---0-0-|
-|
E|-----------------------------------------------------------------|
B|-(bass)----------------------------------------------------------|
G|-----------------------------------------------------------------|
D|-----------------------------------------------------------------|
A|-----------------------------------------------------------------|
E|-0---0-0-0---0-0-0---0-0-0---0-0-0---0-0-0---0-0-0---0-0-0---0-0-|
-|Here our soldiers stand from all around the world
E|-----------------------------------------------------------------|
B|-(bass)----------------------------------------------------------|
G|-----------------------------------------------------------------|
D|-----------------------------------------------------------------|
A|-3---3-3-3---3-3-3---3-3-3---3-3-3---3-3-3---3-3-3---3-3-3---3-3-|
E|-----------------------------------------------------------------|
-|Waiting in a line to hear the battle cry
E|-----------------------------------------------------------------|
B|-(bass)----------------------------------------------------------|
G|-----------------------------------------------------------------|
D|-----------------------------------------------------------------|
A|-7-------------------------------------------------------------|
E|-0---0-0-0---0-0-0---0-0-0---0-0-0---0-0-0---0-0-0---0-0-0---0-0-|
-|All are gathered here victory is near. The
E|-----------------------------------------------------------------|
B|-(bass)----------------------------------------------------------|
G|-----------------------------------------------------------------|
D|-----------------------------------------------------------------|
A|-3---3-3-3---3-3-3---3-3-3---3-3-3---3-3-3---3-3-3---3-3-3---3-3-|
3|-----------------------------------------------------------------|
-| sound will fill the hall bringing power to us all |
E|-----------------------------------------------------------------|
B|-guitar 1--------------------------------------------------------|
G|-----------------------------------------------------------------|
D|-----------------------------------------------------------5---7-|
A|-----------------------------------------------------------3---5-|
E|-----------------------------------------------------------------|
Guit1
E|-----------------------------------------------------------------|
B|-----------------------------------------------------------------|
G|-9---------------------------------------------------------------|
D|-9---------------------------------------------------------------|
A|-7---------------------------------------------------------------|
E|-----0-0-0---0-0-0---0-0-0---0-0-0---0-0-0---0-0-0---0-0-0---0-0-|
-|We alone are fighting for metal that is true
m------------------------------------------------------------m
E|-----------------------------------------------------------------|
B|-----------------------------------------------------------------|
G|-5---------------------------------------------------------------|
D|-5---------------------------------------------------------------|
A|-3---3-3-3---3-3-3---3-3-3---3-3-3---3-3-3---3-3-3---3-3-3---3-3-|
E|-----------------------------------------------------------------|
-| We own the right to live the fight we're here for all of you. Now
E|-----------------------------------------------------------------|
B|-----------------------------------------------------------------|
G|-----------------------------------------------------------------|
D|-9---------------------------------------------------------------|
A|-7---------------------------------------------------------------|
E|-0---0-0-0---0-0-0---0-0-0---0-0-0---0-0-0---0-0-0---0-0-0---0-0-|
-| swear the blood upon your steel will never dry
E|-----------------------------------------------------------------|
B|-----------------------------------------------------------------|
G|-------------------------------------------------------------1212|
D|-5-----------------------------------------------------------1212|
A|-3---3-3-3---3-3-3---3-3-3---3-3-3---3-3-3---3-3-3---3-3-3---1010|
E|-----------------------------------------------------------------|
-|Stand and fight together beneath the metal sky
-------------------------------------------------------------------
Refrain:
guit#1: Note: Guit#2 plays the same, but mutes instead...
E|-----------------.-----------------------------------------------|
B|-----------------------------------------------------------------|
G|-9-------9-------(9)---------12-7-------7------(7)--------------|
D|-9-------9-------(9)---------12-7-------7------(7)--------------|
A|-7-7-7-7-7-------(7)---------10-5-5-5-5-5------(5)--------------|
E|-----------------------------------------------------------------|
-| Brothers Everywhere Raise you hands into the air
mmmmmm mmmmmm

E|-----------------------------------------------------------------|
B|----------------------------------------------6-(a.h.)-----------|
G|-5-------5-------12------11------9---------5-7--5---------12---|
D|-5-------5-------12------11------9---------^----(9)---------12---|
A|-3-3-3-3-3-------10------9-------7---------|----(7)---------10---|
E|-------------------------------------------|---------------------|
-|We're warriors Warriors of The World (I dunno if this part is
mmmmmm right or not...tell me!)
E|-----------------.-----------------------------------------------|
B|-----------------------------------------------------------------|
G|-9-------9-------(9)---------12-7-------7------(7)--------------|
D|-9-------9-------(9)---------12-7-------7------(7)--------------|
A|-7-7-7-7-7-------(7)---------10-5-5-5-5-5------(5)--------------|
E|-----------------------------------------------------------------|
-| Like thunder from the sky Sworn to fight and die
mmmmmm mmmmmm

E|-----------------------------------------------------------------|
B|-----------------------------------------------------------------|
G|-5-------5-------12------11------9-------------------------------|
D|-5-------5-------12------11------9-----------------Dive slowly---|
A|-3-3-3-3-3-------10------9-------7---------------7---------------|
E|-----------------------------0-0-0---0-0-0---0-0-0---0-0-0---0-0-|
-|We're warriors Warriors of The World
mmmmmm XX
XX=after 2.verse; fade out and dive slowly...
--------------------------------------------------------------------
Verse 2:

E|-----------------------------------------------------------------|
B|-----------------------------------------------------------------|
G|-9---------------------------------------------------------------|
D|-9---------------------------------------------------------------|
A|-7---------------------------------------------------------------|
E|-----0-0-0---0-0-0---0-0-0---0-0-0---0-0-0---0-0-0---0-0-0---0-0-|
-| Many stand against us but they will never win
m------------------------------------------------------------m
E|-----------------------------------------------------------------|
B|-----------------------------------------------------------------|
G|-5---------------------------------------------------------------|
D|-5---------------------------------------------------------------|
A|-3---3-3-3---3-3-3---3-3-3---3-3-3---3-3-3---3-3-3---3-3-3---3-3-|
E|-----------------------------------------------------------------|
-| We said we would return and here we are again
E|-----------------------------------------------------------------|
B|-----------------------------------------------------------------|
G|-----------------------------------------------------------------|
D|-9---------------------------------------------------------------|
A|-7---------------------------------------------------------------|
E|-0---0-0-0---0-0-0---0-0-0---0-0-0---0-0-0---0-0-0---0-0-0---0-0-|
-| To bring them all destruction suffering and pain. We are
E|-----------------------------------------------------------------|
B|-----------------------------------------------------------------|
G|-----------------------------------------------------------------|
D|-5-----------------------------------------------------------5-7-|
A|-3---3-3-3---3-3-3---3-3-3---3-3-3---3-3-3---3-3-3---3-3-3---3-5-|
E|-----------------------------------------------------------------|
-| the hammer of the Gods, we are thunder, wind and rain
E|-----------------------------------------------------------------|
B|-----------------------------------------------------------------|
G|-9---------------------------------------------------------------|
D|-9---------------------------------------------------------------|
A|-7---------------------------------------------------------------|
E|-----0-0-0---0-0-0---0-0-0---0-0-0---0-0-0---0-0-0---0-0-0---0-0-|
-|There they wait in fear with swords in feeble hands
m------------------------------------------------------------m
E|-----------------------------------------------------------------|
B|-----------------------------------------------------------------|
G|-5---------------------------------------------------------------|
D|-5---------------------------------------------------------------|
A|-3---3-3-3---3-3-3---3-3-3---3-3-3---3-3-3---3-3-3---3-3-3---3-3-|
E|-----------------------------------------------------------------|
-| With dreams to be a King first one should be a man
E|-----------------------------------------------------------------|
B|-----------------------------------------------------------------|
G|-----------------------------------------------------------------|
D|-9---------------------------------------------------------------|
A|-7---------------------------------------------------------------|
E|-0---0-0-0---0-0-0---0-0-0---0-0-0---0-0-0---0-0-0---0-0-0---0-0-|
-| I call them out and charge them all with a life that is a lie
E|-----------------------------------------------------------------|
B|-----------------------------------------------------------------|
G|------------------------------------------------------------12--|
D|-5-----------------------------------------------5!^--------12--|
A|-3---3-3-3---3-3-3---3-3-3---3-3-3---3-3-3---3-3-3!^--------10--|
E|-----------------------------------------------------------------|
-| And in their final hour they shell confess before they die

Repeat Refrain, Guit 1 fades out and dives slowly...
?Interlude? with adlib synths
If i should fall in battle my brothers who fight by my side
Gather my horse and waepons tell my family how i died
Until then i will be strong I will fight for all that is real
All who stand in my way will die by steel
Repeat Refrain 4-5 times and fade out!
______________________________________________________________________________

Warriors of the World United
Here our soldiers stand from all around the world
Waiting in a line to hear the battle cry
All are gathered here victory is near
The sound will fill the hall bringing power to us all
We alone are fighting for metal that is true
We own the right to live the fight we're here for all of you
Now swear the blood upon your steel will never dry
Stand and fight together beneath the metal sky
Brothers Everywhere
Raise you hands into the air
We're warriors
Warriors of The World
Like thunder from the sky
Sworn to fight and die
We're warriors
Warriors of The World
Many stand against us but they will never win
We said we would return and here we are again
To bring them all destruction suffering and pain
We are the hammer of the Gods we are thunder wind and rain
There they wait in fear with swords in feeble hands
With dreams to be a King first one should be a man
I call them out and charge them all with a life that is a lie
And in their final hour they shell confess before they die
Brothers Everywhere
Raise you hands into the air
We're warriors
Warriors of The World
Like thunder from the sky
Sworn to fight and die
We're warriors
Warriors of The World
If i should fall in battle my brothers who fight by my side
Gather my horse and waepons tell my family how i died
Until then i will be strong I will fight for all that is real
All who stand in my way will die by steel
Brothers Everywhere
Raise you hands into the air
We're warriors
Warriors of The World




Ваше мнение



Капча