In this tablature the simbol "/" is a "bend".
Intro: (is played two times)
e|-----------------------------------------------------------------------|
b|-----------------------------------------------------------------------|
g|-----------------------------------------------------------------------|
D|-2-222222222222222------------------------------------5-5-7-5-5-5-7----|
A|-0-000000000000000--2-222222222222222--3-3-5-3-3-3-5--3-3-3-3-3-3-3----|
E|--------------------0-000000000000000--1-1-1-1-1-1-1-------------------|

e|----------------------------|
b|----------------------------|
g|---------------------------o|
D|-7-7-9-7-7-7-9-7-7-7-9-7-7-o|
A|-5-5-5-5-5-5-5-5-5-5-5-5-5--|
E|----------------------------|
When you see me comin´ flying down the road you know I ain´t afraid
e|-----------------------------------------------------------------------|
b|-----------------------------------------------------------------------|
g|-----------------------------------------------------------------------|
D|-2-222222222222222------------------------------------5-5-7-5-5-5-7----|
A|-0-000000000000000--2-222222222222222--3-3-5-3-3-3-5--3-3-3-3-3-3-3----|
E|--------------------0-000000000000000--1-1-1-1-1-1-1-------------------|
to lay it down
e|----------------------------|
b|----------------------------|
g|---------------------------o|
D|-7-7-9-7-7-7-9-7-7-7-9-7-7-o|
A|-5-5-5-5-5-5-5-5-5-5-5-5-5--|
E|----------------------------|
Chorus (is played two times)|
Ride, Ride... |Base to solo, 1st part (four times)
e|----------------------------|------------------------------------------|
b|----------------------------|------------------------------------------|
g|----------------------------|-----------------------------------------o|
D|--5-5-5-5-5--7-77777-7/-----|-2-222222222222222-5-4-------------------o|
A|--3-3-3-3-3--5-55555-5/-----|-0-000000000000000-3-2--------------------|
E|----------------------------|------------------------------------------|
Base to solo, 2nd part (four times)
e|-----------------------------------|---|
b|-----------------------------------|---|
g|----------------------------------o|---|
D|----------------------------------o|---|
A|-2-222222222222222-5-4-------------|-7-|
E|-0-000000000000000-3-2-------------|-5-|
Second chorus
Ride, Ride... Riding,...
e|-----------------------------------------------------------------------|
b|-----------------------------------------------------------------------|
g|-----------------------------------------------------------------------|
D|--5-5-5-5-5--7-7-7-7-7-77777-7--5-5-5-5-5--7-7-7-7-7-7-7-7-7-7-777777/-|
A|--3-3-3-3-3--5-5-5-5-5-55555-5--3-3-3-3-3--5-5-5-5-5-5-5-5-5-5-555555/-|
E|-----------------------------------------------------------------------|
Ride Ride
e|--------------------------------------------------|
b|--------------------------------------------------|
g|--------------------------------------------------|
D|-2-2-2-2-2-2-2-2-2--7/--2-2-2-2-2-2-2-2-2--7/-----|
A|-0-0-0-0-0-0-0-0-0--5/--0-0-0-0-0-0-0-0-0--5/-----|
E|--------------------------------------------------|
A5 E5
When you see me comin´ flying down the road
F5 C5 D5
You know I ain´t afraid to lay it down
Yea got me some leather. Leather is my skin
Black n chrome flashin´ through the town.
Some call me the WARLORD ´cause I´m a GOD-DAMN
bad machine, young n hungry, not too proud n mean
C5 D5
Ride, ride, ride, I´m the WARLORD of the road,
C5 D5
Riding, riding, riding, ain´t never growin old.
Take what I want and I go where I please
Got the world right by the balls.
This world ain´t big enough to keep me down.
Yea we´re livin´ in a sick world. The man on the T.V.
Said we got lotsa trouble overseas, well
What the hell do I care? Think they care about me?
Stop sending money send em all a bomb.
Ride, ride, ride, I´m the WARLORD of the road,
Ridin, ridin, ridin, ain´t never growin old.
Born to live in the fast lane on a chopped up Harley-D,
Smell that oil and high test gasoline.
Never got a shortage of girls to share my seat.
Well they all want to know what people say is true,
You know, get a biker started n he´ll drive all damn night.
Well hold on honey cause this ride´s for a ride.
A5 D5 A5 D5 A5 D5 A5 D5
Ride, ride, ride, ride
Ride, ride, ride, I´m the WARLORD of the road.
Riding, ridin, ridin, ain´t never growin old.
Standard Tuning
|-----------------------------15-12------------------------------------------|
|-----------------------------------15-12--------------------13-13-13-13-13--|
|-0(2)bend-up--2-2-2-2-2-2----------------14-12--------------14-14-14-14-14--|
|-----------------------------------------------14-12------------------------|
|-----------------------------------------------------14-12------------------|
|----------------------------------------------------------------------------|
|------------------------------------------------15(17)-12-15-12-------------|
|-12-13-12-13-12-13/15-15-15-15/17-17-17-17-17-------------------15-12-------|
|-12-14-12-14-12-14/16-16-16-16/18-18-18-18-18-------------------------14(16)|
|----------------------------------------------------------------------------|
|----------------------------------------------------------------------------|
|----------------------------------------------------------------------------|
|------15(17)-15(17)-12----12-15-15(17)-12--15-12-15-12----------------------|
|-----------------------15------------------------------15-12-15-12----------|
|-12----------------------------------------------------------------14-12-14-|
|----------------------------------------------------------------------------|
|----------------------------------------------------------------------------|
|----------------------------------------------------------------------------|
|------------------15-12----15-12----15-12----15-12----15-12----15-12----15--|
|------------------------15-------15-------14-------14-------15-------15-----|
|-12-------------------------------------------------------------------------|
|----14-12-14-12-------------------------------------------------------------|
|----------------------------------------------------------------------------|
|----------------------------------------------------------------------------|
|-12----15-12----------------------------------------------------------------|
|----14-------14--13(15)-13(15)-13(15)-13(15)--------------------------------|
|---------------------------------------------11-----------------------------|
|----------------------------------------------------------------------------|
|----------------------------------------------------------------------------|
|----------------------------------------------------------------------------|
Later
|-------|-------|---------|--------------------------------------------------|
|-15(17)|-8(10)-|-18(20)--|--------------------------------------------------|
|-------|-------|---------|--------------------------------------------------|
|-------|-------|---------|--------------------------------------------------|
|-------|-------|---------|--------------------------------------------------|
|-------|-------|---------|--------------------------------------------------|
I don´t see a point to tab the rest ´cause it´s all pure improvisation




Ваше мнение



Капча