Standard Tuning

Note:I tabbed only the guitar ´cause the bass-thing is quite complicated..

INTRO
-----------------------------------------|
-----------------------------------------|
-----------------------------------------|
|-----9----11-12--7--5--9-|------9---11-12--7--5--4--|--5----7----9----------|
|-----9----11-12--7--5--9-|------9---11-12--7--5--4--|--5----7----9----------|
|-7-7-7----9--10--5--3--7-|--7-7-7---9--10--5--3--2--|--3----5----7----------|

-----------------------------------------------------|
-----------------------------------------------------|
|--6-65--6-6/7--6-65---6-4-2-----------------------------------|
|-7---5---4------------------------------------------------------|
|-7---5---4------------------------------------------------------|
|-5---3---2------------------------------------------------------|

Riff 1
-----------------------------------------------------------------|
|----2h3p2h3p2h3p2~--------2h3p2h3p2h3p2~-------2h3p2h3p2h3p2~---------------|
-----------------------------------------------------------------|
|-4------------------2---4-----------------2--4-----------------2------------|
|-4------------------2---4-----------------2--4-----------------2------------|
|-2------------------0---2-----------------0--2-----------------0------------|

-----------------------------------------------------------------|
|---2h3p2h3p2h3p2~------------------2h3p2h3p2h3p2~---------2h3p2h3p2h3p2~----|
-----------------------------------------------------------------|
|-4--------------------5---7-5-5-4------------------2---4------------------2-|
|-4--------------------5---7-5-5-4------------------2---4------------------2-|
|-2--------------------3---5-3-3-2------------------0---2------------------0-|

-----------------------------------------------------------------|
|---2h3p2h3p2h3p2~------------------2h3p2h3p2h3p2~--------2h3p2h3p2h3p2~-----|
-----------------------------------------------------------------|
|-4--------------------5---7-5-5-4------------------2---4--------------------|
|-4--------------------3---7-5-5-4------------------2---4--------------------|
|-2--------------------3---5-3-3-2------------------0---2--------------------|

Chorus
-----------------------------------------------------------------|
------------------------------------------3-2----------12-------|
--------------------------4---------------------------------4-4--|
|-5-----7-----9----5----7---9----5--4-4-----------2-4-----5---4---------4-4--|
|-5-----7-----9----5----7---9----5--4-2---2-4-5-2---------5---4---------2-2--|
|-3-----5-----7----3----5---7----3--2---------------------3---2--------------|

-----------------------------------------------------------------|
--3-2------------------------------------------------------------|
-----------------------------------------------------------------|
|---------2-4------5--7---4---play-the-intro-riff----------------------------|
|-2-4-5-2----------5--7---4--------------------------------------------------|
-------3--5---2--------------------------------------------------|

Solo(Play Riff 1)
-----------------------------------------------17-15-14-15-14----|
|14-14-14-14-14-14--17-15-14-15--17-15-14-15--17-15-14-15-----------------17-|
-----------------------------------------------------------------|
-----------------------------------------------------------------|
-----------------------------------------------------------------|
-----------------------------------------------------------------|

|-14-------------------------------------------------------------------------|
|----17-15-17-15-14-15-14----14----------------------------------------------|
--------------16----16-14-16-14-12-14-12----12-------------------|
-----------------------------------------16----16-14-16-14-12----|
-----------------------------------------------------------------|
-----------------------------------------------------------------|

-----------------------------------------------------------------|
-----------------------------------------------------------------|
--------------------------------------------------16(18)br-14----|
|-14-12----12----------------------------------------12-14-16-------------16-|
|-------16----16-14-16-14-12----------------12-14-16-------------------------|
-----------------15-13-12-13-15----------------------------------|

-------------19(21)-17-19-17----17-------------------------------|
-----14-15-------------------20----20-19-17----------------------|
|-16(18)br-14-------------------------------------------19-18-16-------------|
--16-------------------------------------------------19-17-16----|
-----------------------------------------------------------------|
-----------------------------------------------------------------|

---------------------------------------17h19p17h19p17-15h17p15---|
-----------------------------------------------------------------|
-----------------------------------------------------------------|
-----------------------16-17-19-17-------------------------------|
|-19-17-16----------------16-17-19-------------------------------------------|
|----------19-17-15-17-19----------------------------------------------------|

|-17(19)-17-15-14------------------------------------------------------------|
------17-15-14---------------------------------------------------|
---------------16-14-12----------------12-14-16-16(18)-16(18)----|
------------------------16-14-12-14-16---------------------------|
-----------------------------------------------------------------|
-----------------------------------------------------------------|

-----------------------------------------------------------------|
------------------------------------12-14-15-14-12---------------|
|16(18)--14h16-12h14-11-12-11----------11-12-14----------------14-12-11------|
------------------14-12-14----------------------------------14-12|
-----------------------------------------------------------------|
-----------------------------------------------------------------|

----------------------------------------------------------17-----|
-------------------------------------------------17-19-20----20--|
----------------------16-18-19----------16-18-19-----------------|
|11-9(10)----------------16-17-19----------16-17-19--------------------------|
|---------12-10-12----19-----------------------------------------------------|
-----------------------------------------------------------------|

-------19(21)-19(21)-19(21)-19(21)-19(21)-19(21)-17-19-17--------|
|-19-17---------------------------------------------------------------19-----|
|-------19-18-16-------------------------------------------------------------|
-----------------------------------------------------------------|
-----------------------------------------------------------------|
-----------------------------------------------------------------|

Play Chorus

Play Riff 1




Ваше мнение



Капча