Intro:
Above the... Judment passed.. Now clear...
e|-----------------------------------------------|
b|-----------------------------------------------|
g|-----------------------------------------------|
D|---2--|---2--|---2----------------2--------------------5---------------|
A|---2--|---2--|---2----------------2--------------------3---------------|
E|-0-0--|-0-0--|-0-0--------------0-0------------------0-----------------|
A fitting... What was written foretold in dreams In visions
e------------------------------------|
b------------------------------------|
g------------------------------------|
D|-5----------------|--5----------------------------------|----4---------|
A|-3----------------|--3-------------------5--------------|----2---------|
E|---0-------------------------3-----------------|
apocalypse now seen And all self-righteous fools who lived
e----------------------------------------|
b----------------------------------------|
g----------------------------------------|
D|--5-------------7----|-5----------------------------5--4-------|
A|--3-------------5----|-3----------------------------3--2--7----|
E-----------------------------------5----|
and blasphemed Drink the wine of his anger Die with the beast.
e-----------------------------------------------------------|
b-----------------------------------------------------------|
g-----------------------------------------------------------|
D-----4---------------------5-------------------7-----------|
A|----------5-----2---------------------3-------------------5-----------|
E|----------3-----------------------------------------------------------|
Vindication... See his angels... The day... The moon...
e-----------------------------------------------------------|
b-----------------------------------------------------------|
g-----------------------------------------------------------|
D|----2----------------2--------------------5-----------5---------------|
A|----2----------------2--------------------3-----------3---------------|
E|--0-0--------------0-0------------------0---------------0-------------|
Know the end is coming, heed this sign
e------------------------------------|
b------------------------------------|
g-----------------------------------o|
D---------------------5-5-5---------o|
A|--7-7-X-X-X------------7-7-X-X--3-3-3--5-5-5---|
E|--5-5-X-X-X------------5-5-X-X---------3-3-3---|
Chorus:(Guitar one)
Revelation, the chosen saved Earth be cleansed in a blaze
e-----------------------------------------------------------|
b-----------------------------------------------------------|
g|---5--9-7-5-4------8---8-6-9---------9-8-11---------12-14-16/---------|
D|-2--------------------------------------------------------------------|
A-----------------------------------------------------------|
E-----------------------------------------------------------|
Chorus:(Guitar two)
Revelation, the chosen saved Earth be cleansed in a blaze
e-----------------------------------------------------------|
b-----------------------------------------------------------|
g-----------------------------------------------------------|
D|-5-----5-4--------------------4---------5------------7----------------|
A|-3-----3-2--7---5-------------2---------3------------5----------------|
E-5---3-----------------------------------------------------|
This is the third chorus, after the solo:
Revelation, the chosen saved Earth be cleansed in a blaze
e-----------------------------------------------------------|
b-----------------------------------------------------------|
g-----------------------------------------------------------|
D|-5-----5-4--------------------4---------5------------7----------------|
A|-3-----3-2--7---5-------------2---------3------------5------------2-3-|
E-5---3-----------------------------------------0-2-3-5-----|
Armageddon, the first trumpet blows Hail, fire and blood fall on...
e-----------------------------------------------------------|
b-----------------------------------------------------------|
g-----------------------------------------------------------|
D|-5-----5-4--------------------------4---------------5---------------7-|
A|-3-----3-2--7---5-------------------2---------------3---------------5-|
E-5---3-----------------------------------------------------|
E5 E5
Above the wreckage of your mortal world I stand
E5 E5
Judgement passed delivered by his hand
E5 C5
Now clear the smoke, there the ashes stand
C5 E5
A fitting tribute to mortality and man.
C5 G5
What was written foretold in dreams,
B5 C5 D5
in visions apocalypse now seen.
C5 C5 B5 A5 G5
And all self-righteous fools who lived and blasphemed
B5 C5
Drink the wine of his anger
D5
Die with the beast.
E5 E5
Vindication, he is coming on the clouds.
E5 E5
See his angels, hear their trumpets sound.
E5 C5
The day of anger when the stars fall from the sky
C5 E5
The moon turns red, the sun turns black as night.
A5 A5 C5 G5
Know the end is coming, heed this sign
A5 A5 C5 G5
By the morning star the four horsemen ride.
C5 C5 B5 A5 G5
Revelation, the chosen saved
B5 C5 D5
Earth be cleansed in a blaze.
C5 C5 B5 A5 G5
Armageddon, the first trumpet blows
B5 C5 D5
Hail, fire and blood fall on Satan´s throne.
His hair as white as wool, his eyes like burning flame
He is the first and last, he brings the seven plagues.
Seven stars of seven cities in his hand
He holds the keys of death for the underworld and man.
Know the end is coming, heed this sign
By the morning star the four horsemen ride.
Revelation, the chosen saved
Earth be cleansed in a blaze.
Armageddon, the first trumpet blows
Hail, fire and blood fall on Satan´s throne.
Revelation, the chosen saved
Earth be cleansed in a blaze.
Armageddon, the first trumpet blows
Hail, fire and blood fall on Satan´s throne.
Manowar: Revelation (Death´s Angel) solo(Into Glory Ride)
Transcribed by HeXa([email protected])
Standard Tuning
|-17(19)-br--------------------------------------12-15(17)-br-12-|
|----------20p17---10(12)-br---------------------|--------12-----------------|
-----------------12p9----4-----------|-14(16)--------------------|
---------------------------5-2-----------------------|
------------------------------2----------------------|
--------------------------------3--0-----------------|
-----------------------------------------------------------------|
|-15-12----------------------------------------------------------------------|
|-------14-12-----------------------------------------------12-12-12-11-11-11|
--14-12----------------------------------------------------------|
--------14-12---------------------121212-141414------------------|
--------------15-12-121212-151515--------------------------------|
-----------------------------------------------------|
|----|-12-----12-12-12-----12-12-12-----12--13p12h13p12-------13p12h13p12----|
|----|-14(16)-------14(16)-------14(16)-----------------14p12----------------|
|-14-------------------------------------------------------------|
-----------------------------------------------------|
-----------------------------------------------------|
----------------------------14-15-12-14----12--------------------|
|--------15p12-13p12----15p12-13p12-----------------15----13-15-12-13--------|
|-14p12--------------14-------------14--------------------------------14-----|
-----------------------------------------------------------------|
-----------------------------------------------------------------|
-----------------------------------------------------------------|
|-17(19)-br------------------------------------------------------------------|
20p17------------------------------------------------------------|
----------4------------------------------------------------------|
------------5-5p4h5p4------2p0-2p0-2p0--------7-5-4-5-4----------|
----------------------7----------------2----------------7-5-7----|
-----------------------------------------------------------------|
|-17-----17-----17-----17-----17-------20-17-----------20-17----------20-17--|
|-20(22)-20(22)-20(22)-20(22)-20(22)---------20-17-----------20-17-----------|
---------------------------------------19--------------19--------|
-----------------------------------------------------------------|
-----------------------------------------------------------------|
-----------------------------------------------------------------|
-----------------------------------|-17------17-----17-----20(22)|
|-20-17-------20-17----17----------------------|-20(22)--20(22)-20(22)-------|
|-------19-17-------19----19-17----------------------------------|
--------------------19-17----------------------------|
--------------------------19-17----------------------|
--------------------------------20-------------------|
|-20-17----17-17-----|-------15--19-20---------------------------------------|
|-------20----20(22)-|----15-------------------------------------------------|
---------|-16----------------------------------------------------|
-----------------------------------------------------|
-----------------------------------------------------|
-----------------------------------------------------|




Ваше мнение



Капча