Main Riff:
1---------------------------------|
2---------------------------------|
3---------------------------------|
4|--2----7--5--4--2-----2---2-----2--2--7--4--|
5|--2----5--3--2--O--5--2---2--5--O--O--5--2--|
6|--O----------------3--O---O--3--------------|


She is waiting to kiss my hand But she will wait for my command
1------------------------------------------------------------------|
2------------------------------------------------------------------|
3------------------------------------------------------------------|
4|--5----------7-------2-----------------9-7-|-5----------------7----2----------------9-7--|
5|--3----------5-------2-----------------7-5-|-3----------------5----2----------------7-5--|
6----------O---------------------------------O---------------------|
My chains and collar brought her to her knees She now is free to please
1-----------------------------------------------------------------|
2-----------------------------------------------------------------|
3-----------------------------------------------------------------|
4|--5-----------------7-------9--------7---------5----7-|-------7---------------222222222-|
5|--3-----------------5-------7--------5---------3----5-|-------5---------------222222222-|
6-------------------------------------------------------OOOOOOOOO-|

Chorus:
Woman be my slave
1------------
2------------
3------------
4---2----7--5
5---2----5--3
6---O-------- ( Main riff ...)

Woman, come here remove your garments kneel before me PLEASE ME !!!
1----------------------------------------------------------|
2----------------------------------------------------------|
3----------------------------------------------------------|
4|--2--------------------2------------------------2-------------------2|
5|--2--------------------2------------------------2-------------------2|
6|--O--------------------O------------------------O-------------------O|
She is waiting to kiss my hand
But she will wait for my command
My chains and collar brought her to her knees
She now is free to please
CHORUS:

Woman be my slave
That’s your reason to live
Woman be my slave
The greatest gift I can give
Woman be my slave
Before her surrender she had no life
Now she’s a slave not a wife
Her only sorrow is for women who live with lies
She’s taken off her disguise
CHORUS:
Woman be my slave
Chained unto my bed
Woman be my slave
Begging to be fed
Woman be my slave
Your Body Belongs To Me
Woman come here remove your garments kneel before me PLEASE ME !!!
Woman be my slave
Chained unto my bed
Woman be my slave
Begging to be fed
Woman be my slave
I want you NOW
WOMAN BEEEEE MY SLAAAAAAAAAAAAAAAAAAVE !!!




Ваше мнение



Капча