Artist: MANOWAR
Song: METAL WARRIORS
Album: THE TRIUMPH OF STEEL (1992)
Tabbed: Guttenbrunner Mark ([email protected])
Verse 1 Riff:
e ------------------------------------------------------------------------
B ------------------------------------------------------------------------
G ------------------------------------------------------------------------
D -------------------------------7--------------------------------9-------
A ------2--5--2-------7s12s7-2--5-5-2-------7s12s7-2--5--2--------7-------
E ------0--3--0-------5s10s5-0--3---0-------5s10s5-0--3--0----------------
..call ..tall ..hall ..Metal
Verse 2 Riff:
e -----------------------------------------------------------------------------
B -----------------------------------------------------------------------------
G -----------------------------------------------------------------------------
D -----------------------------------------7-------------------------------99--
A ------7s12s7-2--3--2---------7s12s7-2--5-5-2-------7s12s7-2--5--2--------77--
E ------5s10s5-0--3--0---------5s10s5-0--3---0-------5s10s5-0--3--0------------
..decree ..please ..ten ..Metal

Chorus Riff:
at the end of chorus play
e ------------------------------- ---------------------------------------
B ------------------------------- ---------------------------------------
G ------------------------------- ---------------------------------------
D ------9--7--9-----5-7---------- ---9--7--9-------5-7-------------------
A ------7--5--7-----3-5---------- ---7--5--7-------3-5-2-----------------
E ------------------------------- ---------------------0-----------------
Heavy Metal ...
Bridge:
e ------------------------------------------------------------------------
B ------------------------------------------------------------------------
G ------------------------------------------------------------------------
D ------------------------------------------------------------------------
A ------------------------------------------------------------------------
E --3333333333333333333333333333333355555555555555557777777777777777------
-> PM




Ваше мнение



Капча