intro

Every one of us has heard the call

e|--------------------------
b|--------------------------
g|--------------------------
D|--------------------------
A|--------------------------
E|----0---3---0-------------

Brothers of True Metal proud and standing tall
e|--------------------------
b|--------------------------
g|--------------------------
D|--------------------------
A|----------------5---------
E|-0~5~0---0---3-----0------

We know the power within us has brought us to this hall
e|--------------------------
b|--------------------------
g|--------------------------
D|--------------------------
A|--------------------------
E|-0~5~0---0---3---0-------------

there's magic in the metal
e|--------------------------
b|--------------------------
g|--------------------------
D|--------------------------
A|--------------------------
E|-0------------------------
there's magic is us all


Heavy metal or no metal at all
e|--------------------------
b|--------------------------
g|--------------------------
D|--7--7-7-5-7-7--7---3--3-3-3-3-5--5-5-5-5
A|--7--7-7-5-7-7--7---3--3-3-3-3-5--5-5-5-5
E|--------------------------

whimps and posers leave the hall
e|--------------------------
b|--------------------------
g|--------------------------
D|--7--7-7-5-7-7--7---3--3-3-3-3-5--5-5-5-5
A|--7--7-7-5-7-7--7---3--3-3-3-3-5--5-5-5-5
E|--------------------------

Heavy metal or no metal at all
e|--------------------------
b|--------------------------
g|--------------------------
D|--7--7-7-5-7-7--7---10--10-10-10-10-5--5-5-5-5
A|--7--7-7-5-7-7--7---10--10-10-10-10-5--5-5-5-5
E|--------------------------

whimps and posers go on get out,leave the hall
e|--------------------------
b|--------------------------
g|--------------------------
D|--7--7-7-5-7-7--7---3--3-3-3-3-5--5-5-5-5
A|--7--7-7-5-7-7--7---3--3-3-3-3-5--5-5-5-5
E|------------------------------------------0

2й куплет и припев такие же, как вначале. После 2го припева начинается
соло - его я, к сожалению, подобрать не смог =), написал только басс=)

3й куплет(басс)
Now the world must listen to our decree
g|----------------------------------------
D|-----------------------------------------
A|-2----2-2--------------------------------
E|-------------3----3------------------------

We don't turn down for anyone we do just what we please
g|----------------------------------------
D|-----------------------------------------
A|-2----2-2--------------------------------
E|-------------3----3----------------------

Got to make it louder, all men play on ten
g|----------------------------------------
D|-----------------------------------------
A|-2----2-2--------------------------------
E|-------------3----3------------------

If you're not into metal, you are not my friend
g|----------------------------------------
D|-----------------------------------------
A|-2----2-2--------------------------------
E|-------------3----3---------------------

There's metal in the air tonite, can you hear it call?
g|----------------------------------------
D|-----------------------------------------
A|----------------------------------------
E|------3-3-3-3-3-3(всю строку)-------------

If you ain't got the balls, to take it
g|----------------------------------------
D|-----------------------------------------
A|-0-0-0-0-0-0-0-0-(всю строку)-----------
E|---------------------------------------

You can leave the hall
g|----------------------------------------
D|-----------------------------------------
A|-2-2-2-2-2-(всю строку)-----------
E|---------------------------------------

ну и дальше припев - такой же, как в начале
Извиняюсь, если написал что-нибудь коряво - табу пишу первый раз:-)
ManOwaR's gonna live 4evermore!!

Metal Warriors (Brothers Of Metal Part One)
(Joey DeMaio)

Every one of us has heard the call
Brothers of True Metal proud and standing tall
We know the power within us has brought us to this hall
there's magic in the metal there's magic is us all

Heavy metal or no metal at all whimps and posers leave the hall
Heavy metal or no metal at all whimps and posers go on get out
Leave the hall

Now the world must listen to our decree
We don't turn down for anyone we do just what we please
got to make it louder, all men play on ten
If you're not into metal, you are not my friend

Heavy metal or no metal at all whimps and posers leave the hall
Heavy metal or no metal at all whimps and posers I said
Leave the hall

Now the world must listen to our decree
We don't turn down for anyone we do just what we please
Got to make it louder, all men play on ten
If you're not into metal, you are not my friend

There's metal in the air tonite, can you hear it call?
If you ain't got the balls, to take it you can
Leave the hall

Heavy metal or no metal at all whimps and posers leave the hall
Heavy metal or no metal at all whimps and posers leave the hall




Ваше мнение



Капча