Riff 1 3x
|----------------------------------------------9-------9------9------9-------|
|------------------------------------------------10------10-----10-----10----|
|-9-9-9---4--5--7--7--7--7-17-----------------------9-------9------9------9--|
|-9-9-9---4--5--7--7--7--7-17-3-3-3-3-5-5-5-5--------------------------------|
|-7-7-7---2--3--5--5--5--5-15-3-3-3-3-5-5-5-5--------------------------------|
|-0-0-0-----------------------1-1-1-1-3-3-3-3--------------------------------|

Riff 2 4x
|----------------------------------------------------------------------------|
|----------------------------------------------------------------------------|
|-9-9-9---4--5--7--7--7-7-17-------------------------------------------------|
|-9-9-9---4--5--7--7--7-7-17-3--3-3-3--5-5--5-5--7-7--7--7-------------------|
|-7-7-7---2--3--5--5--5-5-15-3--3-3-3--5-5--5-5--7-7--7--7-------------------|
|----------------------------1--1-1-1--3-3--3-3--5-5--5--5-------------------|

|2x--------------------------------------|2nd--time-play-this----------------|
|----------------------------------------|-----------------------------------|
|-5--5--5-7-9-7--------------------------|-------------------------8---------|
|-5--5--5-7-9-7--------5-5-5-------5-5-5-|-------5-5-5-------5-5-5-8---------|
|-3--3--3-5-7-5--5-5-5-3-3-3-5-5-5-3-3-3-|-5-5-5-3-3-3-5-5-5-3-3-3-6---------|
|----------------3-3-3-------3-3-3-------|-3-3-3-------3-3-3-----------------|

Play Riff 2 4x

"Bridge"
Played by Bass
|-----7----8-8-------8---8-7--7-7-7--------8-8-------8-------8---------------|
|---5------8---8---8---8-8-5--------5---5--8---8---8---8---8-----------------|
|-5--------6-----6-------6-5----------5----6-----6-------6-------------------|
|----------------------------------------------------------------------------|

3x
|-6-----5---5-6-5---5--6-----8-8------8--------------------------------------|
|-4-4---4-6---4---6----4-4---8--8---8---8------------------------------------|
|-4---4-4-----4--------4---4-6----6-------6----------------------------------|
|----------------------------------------------------------------------------|

4x
|-8-----8-----8-8------8-----------------------------------------------------|
|-6---6---6---8---8--8-------------------------------------------------------|
|-6-6-------6-6-----6--------------------------------------------------------|
|----------------------------------------------------------------------------|

GUITAR Solo(Riff 2 4x)
|4x---------------|----------------------|-----------------------------------|
|-----------------|-14(16)---------------|-10(12)-10(12)-10(12)br-8-10-/15---|
|-8------------8--|--------13(15)--------|-----------------------------------|
|-6-pickscrape-8--|---------------13-----|-----------------------------------|
|-6------------6--|------------------13--|-----------------------------------|
|-----------------|----------------------|-----------------------------------|

|------------------------------------------|---------------------------------|
|-15p13--13-15-15p13-13-15-15(17)-br-13----|---------------15--------------15|
|---------------------------------------14-|-14(16)-14(16)----14(16)-14(16)--|
|------------------------------------------|---------------------------------|
|------------------------------------------|---------------------------------|
|------------------------------------------|---------------------------------|

|-------------------------------17--------------17---------------17-19-19(21)|
|-----------------15--17-20(22)----20-17-20(22)----20-17-20(22)--------------|
|-14(16)-br-12-14------------------------------------------------------------|
|----------------------------------------------------------------------------|
|----------------------------------------------------------------------------|
|----------------------------------------------------------------------------|

|-19(21)-17-|-17(19)-17(19-17(19)-br-15-17-/22--22-2220-20-/22-22-20-20----|
|-----------|----------------------------------------------------------------|
|-----------|----------------------------------------------------------------|
|-----------|----------------------------------------------------------------|
|-----------|----------------------------------------------------------------|
|-----------|----------------------------------------------------------------|

|-/22-22-22(24)-br-20----|---------------------------------------------------|
|---------------------22-|--------15-12--------------------------------------|
|------------------------|-14(16)-------14-12--------------------------------|
|------------------------|--------------------14-12----------------------12--|
|------------------------|--------------------------14-12----------12-14-----|
|------------------------|--------------------------------15-12-15-----------|

|------------------------17--------------17--------------17-19-19(21)-19(21)-|
|---------15---17-20(22)----20-17-20(22)----20-17-20(22)---------------------|
|----11----------------------------------------------------------------------|
|-14-------------------------------------------------------------------------|
|----------------------------------------------------------------------------|
|----------------------------------------------------------------------------|
After the Solo:
|-br-17--------|-------------------------------------------------------------|
|-------20(22)-|-------------------------------------------------------------|
|--------------|-----------------------------------------kill-me....---------|
|--------------|-2--3--4--5--6--7--8--9--10--11--12--13--2-3-5-6-7-----------|
|--------------|-2--3--4--5--6--7--8--9--10--11--12--13--2-3-5-6-7-----------|
|--------------|-0--1--2--3--4--5--6--7--8---9---10--11--0-1-3-4-5-----------|

Play Riff 1 3x
Play Riff 2 1x

OUTRO
|2x----------------------------------------------|-------------10-13-11------|
|-------------------------------------10-11-13-11|----10-11-13---------------|
|--------------------10---------10-12------------|-12------------------------|
|--------------10-12----13---13------------------|---------------------------|
|-10--10-12-13-----------------------------------|---------------------------|
|------------------------------------------------|---------------------------|

|-------15-17-18-18(20)----------------18-15---------------------------------|
|-16-18--------------------------------------18-15---------------------------|
|--------------------------------------------------17-15-------17-15---------|
|-----------------------5-5-5-5-5-5-5--------------------17-15-------17-15---|
|-----------------------5-5-5-5-5-5-5----------------------------------------|
|-----------------------3-3-3-3-3-3-3----------------------------------------|

|----------------------------------------------------------------------------|
|----------------------------------------------------------------------------|
|----------------------------------------------------------------------------|
|----------------------15-17-------------------------------------------------|
|-17-15----------15-17-------------------------------------------------------|
|-------18-15-18-------------------------------------------------------------|

|------------------------------------------------15-17-18-17-15--------------|
|---------------------------------------15-17-18----------------18-17-15-----|
|-------7-12-14-15-------------14-15-17----------------------------------17-15
|-5-7-8-7-12-14-15----14-15-17-----------------------------------------------|
|-5-7-8-5-10-12-13-17--------------------------------------------------------|
|-3-5-6----------------------------------------------------------------------|

|--------------------------------------------|-------------------------------|
|--------------------------------------------|-------------------------------|
|-15----------------15-14--------------------|-------------------------------|
|----17-15-14-------15-14---5-5-5-5-5-5-5-5--|-5----5------------------------|
|-------------17----13-12---5-5-5-5-5-5-5-5--|-5----5------------------------|
|---------------------------3-3-3-3-3-3-3-3--|-3----3------------------------|




Ваше мнение



Капча