Hey Guys I'm Tharos .... This is the whole song .If you find any errors or you have any
mail me please at [email protected] (Bulgaria :P)
Have nice time with the greatest Metal band ..... ManOwaR
Band: Manowar
Album: Wariors Of the world United
Song title: House of death
Normal Tunning!!! G D A E
I N T R O
G|---3------5-----------2-----|
D|---3------5-----------2-----|
A|---1------3------3/17-0-----|
E|----------------------------|
Chorus Riff
G|---7-------75/7------75/7------7-5-3-|
D|---7-------75/7------75/7------7-5-3-| x2
A|---5-------53/5------53/5------5-3-1-|
E|-----000000-----000000-----000000------|
Verse Riff
Blood and thunder.....
G|---7-------------3---------------------|
D|---7-------------3---------------------|
A|---5555555555555-111111111111111-------| x2
E|---------------------------------------|
Verse Riff Thirt Fourth Time
My path is set......
G|---7-------------3-------5--------------|
D|---7-------------3-------5--------------|
A|---5555555555555-1111111-33333333-------| x2
E|----------------------------------------|
Chorus Riff
Die...Die...
G|---7-------75/7------75/7------7-5-3--------|
D|---7-------75/7------75/7------7-5-3--------| x1
A|---5-------53/5------53/5------5-3-1--3/17--|
E|-----000000-----000000-----000000-------------|
Chorus Riff Second Time
Die..Die.. Into The fire of Hell....
G|---7-------75/7------75/7------7-5-3--------7|
D|---7-------75/7------75/7------7-5-3--------7| x1
A|---5-------53/5------57/5------5-3-1--3/17--5|
E|-----000000-----000000-----000000--------------|
Verse Riff
Army Of The Heavens......
G|---7-------------3---------------------|
D|---7-------------3---------------------|
A|---5555555555555-111111111111111-------| x2
E|---------------------------------------|
Verse Riff Thirt Fourth Time
Across The bridge .......
G|---7-------------3-------5--------------|
D|---7-------------3-------5--------------|
A|---5555555555555-1111111-33333333-------| x2
E|----------------------------------------|
Chorus Riff
Die...Die... Into the house of death...
G|---7-------75/7------75/7------7-5-3--------|
D|---7-------75/7------75/7------7-5-3--------| x1
A|---5-------53/5------53/5------5-3-1--3/17--|
E|-----000000-----000000-----000000-------------|
Chorus Riff Second Time
Die..Die.. Into The fire of Hell....
G|---7-------75/7------75/7------7-5-3--------7|
D|---7-------75/7------75/7------7-5-3--------7| x1
A|---5-------53/5------53/5------5-3-1--3/17--5|
E|-----000000-----000000-----000000--------------|
Silent Part :) There's no Bass here but If you want you can play This:
Until.. I go.... My.. All..
G|--------------------------------------------------|
D|--------------------------------------------------|
A|---5---1---5---3---1---0---1-----------0---1---3--|
E|---0---0---0---0---0---0---0---1---3---0---0---0--|
Riff During Solo (btw ... Success with the solo :P )
Die...
G|---7-------75/7------75/7------7-5-3--------|
D|---7-------75/7------75/7------7-5-3--------| x4
A|---5-------53/5------53/5------5-3-1--3/17--|
E|-----000000-----000000-----000000-------------|
Chorus Riff
Die...Die...
G|---7-------75/7------75/7------7-5-3--------|
D|---7-------75/7------75/7------7-5-3--------| Repeat 10 times
A|---5-------53/5------53/5------5-3-1--3/17--|
E|-----000000-----000000-----000000-------------|
L E G E N D
| / slide up
| slide down
| h hammer-on
| p pull-off
| ~ vibrato
| + harmonic
| x Mute note




Ваше мнение



Капча