HAIL TO ENGLAND (Manowar)

Tabbed by Spyros Soldatos [email protected]
Homepage http://www.geocities.com/SunsetStrip/Frontrow/8281/
Intro..................................................
E5 C5 G5
||-----------------|-----------------|-------------------------|
||-----------------|-----------------|-------------------------|
||-9-------9-------|-9-------9-------|-------------------------|
||-9-------9-------|-9-------9-------|-------------------------|
||-7-------7-------|-7-------7-------|-3-3-3-3-2-0-------------|
||---0-0-0---0-0-0-|---0-0-0---0-0-0-|-------------3-3-3-3-3-3-|
...............................................................
A5 B5 E5
|--------------------------|-----------------|------------------|
|--------------------------|-----------------|------------------|
|--------------------------|-9-------9-------|-9-------9--------|
|--------------------------|-9-------9-------|-9-------9--------|
|-0-0-0-0-0-0--2-2-2-2-2-2-|-7-------7-------|-7-------7--------|
|--------------------------|---0-0-0---0-0-0-|---0-0-0---0-0-0--|
Rh.Fig.1.............................................
C5 G5 A5 B5
||---------------------------|-------------------------|
||*--------------------------|-------------------------|
||---------------------------|-------------------------|
||---------------------------|-------------------------|
||*-3-3-3-3-2-0--------------|-0-0-0-0-0-0-2-2-2-2-2-2-|
||--------------3-3-3-3--3-3-|-------------------------|
1.Raise sails head for the open
Sails full of wind our hearts overflow with be-
Quest for the grail to England we sail with our
Bring what was lost if lives are the cost let it
2.See additional lyrics
......................................
E5 3x
|-----------------|-------------------||
|-----------------|------------------*||
|-9-------9-------|-9-------9---------||
|-9-------9-------|-9-------9---------||
|-7-------7-------|-7-------7--------*||
|---0-0-0---0-0-0-|---0-0-0---0-0-0---||
sea.
lief.
steel.

Rh.Fig.1(half).......................................
C5 G5 A5 B5
|--------------------------|-------------------------|
|--------------------------|-------------------------|
|--------------------------|-------------------------|
|--------------------------|-------------------------|
|-3-3-3-3-2-0--------------|-0-0-0-0-0-0-2-2-2-2-2-2-|
|-------------3-3-3-3--3-3-|-------------------------|
Bring what was lost if lives are the cost let it
Rh.Fig.2........................................
A5 D5 E5 3x
||-----------|-----------------------------------||
||*----------|----------------------------------*||
||---2-----7-|--9--------------------------------||
||---2-----7-|--9--------------------------------||
||*--0-----5-|--7-------------------------------*||
||-----------|-----------------------------------||
be strong she stands
Reaching her hand
Brave and grand
Rh.Fig.3..................................................
D5 C5 Bb5 G5
||---------------------------|------------------------------||
||*--------------------------|-----------------------------*||
||--7-----------------5------|-3----------------------------||
||--7-----------------5------|-3-------------5-5------------||
||*-5-----------------3------|-1-------------5-5-----------*||
||---------------------------|---------------3-3-3-3-3-3-3--||
On English ground we were born
Proudly we return to English shore
Chorus................................
F5 E5 D5 4x
||--------------------------------------||
||*------------------------------------*||
||----------------7-------7------7------||
||--3-----2-------7-------7------7------||
||*-3-----2-------5-5-5-5-5-5--5-5-5-5-*||
||--1-----0-----------------------------||
Hail hail to England
Hail hail hail
Hail hail to England
Hail hail hail
Rh.Fig.1 + Rh.Fig.2 + Rh.Fig.3 (2nd Verse)
Chorus (Chorus)

Rh.Fig.1 (Solo)
Rh.Fig.4.........................................................
D5 Db5 C5 B5 Bb5 A5 G5
||--------------------------------|--------------------------------||
||*-------------------------------|-------------------------------*||
||--7-------6---------5-----4-----|-3-----2------------------------||
||--7-------6---------5-----4-----|-3-----2---------5-5------------||
||*-5-------4---------3-----2-----|-1-----0---------5-5-----------*||
||--------------------------------|-----------------3-3-3-3-3-3-3--||
Years have passed I dreamt of this day
As we raise our hands we proudly say

Chorus................................
F5 E5 D5 3x
||--------------------------------------||
||*------------------------------------*||
||----------------7-------7------7------||
||--3-----2-------7-------7------7------||
||*-3-----2-------5-5-5-5-5-5--5-5-5-5-*||
||--1-----0-----------------------------||
Hail hail to England
Hail hail hail
Hail hail to England
F5 C5 D5
||--------------------------------------||
||*------------------------------------*||
||--------5-------7---------------------||
||--3-----5-------7---------------------||
||*-3-----3-------5--------------------*||
||--1-----------------------------------||
Hail hail hail
Add. Lyrics:
(2nd Verse)
We march from the hills down to London Town
Join raise your hand or hide when we ride for the crown
The sign of the hammer and the black wind blows through the night
Long was our wait our meeting with fate is tonight
Strong she stands...




Ваше мнение



Капча