Tabbed By IRON ([email protected])
Standard Tuning
Em
1|---------7---------------7-------|
2|---8-7-8---8-7-8---8-7-8---8-7---|
3|-9---------------9-------------7-|
4|-9---------------9---------------|
5|-7---------------7---------------|
6|---------------------------------|

C
1|----------7-------------------7----------|
2|----8-7-8---8-7-8-------8-7-8------8-7---|
3|---------------------------------------7-|
4|-10---------------10-10---------10-------|
5|-10---------------10-10---------10-------|
6|-8----------------8--8----------8--------|

Em Em D C
1|---------7---------------7------------------|
2|---8-7-8---8-7-8---8-7-8---8-7--------------|
3|-9---------------9-------------7--9---7---5-|
4|-9---------------9----------------9---7---5-|
5|-7---------------7----------------7---5---3-|
6|--------------------------------------------|
Em D
Brothers I Am Calling From The Valley Of The Kings
G D Em D C
With Nothing To Atone
Em D
A Dark March Lies Ahead And Together We Will Ride
G D Em D C
Like Thunder From The Sky
Em D
May Your Sword Stay Wet Like A Young Girl In Her Prime
G D Em D C
Hold Your Hammers High
Em5(VII) G5(X) D5(V)

Em5 D5
Blood And Death Are Waiting Like A Raven In The Sky
G5 D5 Em5 D5 C5
I Was Born To Die
Em5 D5
Hear Me While I Live Now As I Look Into Your Eyes
G5 D5 Em5 D5 C5
None Shall Hear A Lie
Em5 D5
Now Power And Dominion Are Taken By The Will
G5 D5 Em5 D5 C5
By Divine Right Hail And Kill
Chorus:
Em D C Em
4|------------2---2---0---0--5---5--2-|
5|----------0-2/3-2---0/2-0--3---3--2-|
6|-0--0-2-3------------------3/5-3--0-|
Hail Hail Hail And Kill

Em D C Em
4|-2---2--0---0--5---5-2-|
5|-2/3-2--0/2-0--3---3-2-|
6|---------------3/5-3-0-|
Hail And Kill

C D Em D C Em
4|-5-7--2---2--0---0--5---5-2-|
5|-3-5--2/3-2--0/2-0--3---3-2-|
6|-3-5----------------3/5-3-0-|
Hail Hail Hail And Kill
Em D C Em
4|-2---2--0---0--5---5-2-|
5|-2/3-2--0/2-0--3---3-2-|
6|---------------3/5-3-0-|
Hail And Kill
My Father Was A Wolf I.m A Kinsman Of The Slain
Sworn To Rise Again
I Will Bring Salvation Punishment And Pain
The Hammer Of Hate Is Our Faith
Power And Dominion Are Taken By The Will
By Divine Right Hail And Kill
Hail Hail Hail And Kill
Hail And Kill
Hail Hail Hail And Kill
Hail And Kill
Rip Their Flesh Burn Their Hearts
Stab Them In The Eyes
Rape Their Women As They Cry
Kill Their Servants Burn Their Homes
Till There.s No Blood Left To Spill
Hail And Kill
Power And Dominion Are Taken By The Will
By Divine Right Hail And Kill
Hail Hail Hail And Kill
Hail And Kill
P.$.: Подобрать соло у меня ума не хватило, так что оставляю это вам. Удачи :-))) . . .


Ваше мнение



Капча