Hail And Kill by Manowar
=============
This song is so simple that it doesn't tab, only chords.
------
Em C Em Em-D-C
Acoustic part:
Em
|-----------------|-----------------|-----------------|-----------------|
|-----------------|-----------------|-----------------|-----------------|
|-----------------|-----------------|-----------------|-------4---4-----|
|-----------------|-----------------|-----------------|-----5---5---4-5-|
|-----------------|-----------------|-----------------|-----------------|
|-----------------|-----------------|-----------------|-----------------|
D G D? C D
|-------2---2-----|-------2---2-----|-3---------------|-----------------|
|-----3---3-------|-----3---3-------|---3---3---0---0-|-----------------|
|---2---------2---|-------------2---|-----4---2-------|-----------------|
|---------------4-|---------------4-|-------------0---|-----------------|
|-5---------------|-5---------------|-----------------|-----------------|
|-----------------|-----------------|-3---------------|-----------------|
C
|-----------------|-----------------|-----------------|-----------------|
|-----------------|-----------------|-----------------|-----------------|
|-----------------|-----------------|-----------------|-----------------|
|-----------------|-----------------|-----------------|-----------------|
|-----------------|-----------------|-----------------|-----------------|
|-----------------|-----------------|-----------------|-----------------|
Brothers I am calling from the valley of the kings
with nothing to atone
Dark march lies ahead, together we will ride like
thunder from the sky
May your swords stay wet like young girl in her prime
Hold your hammers high
Em D
Blood and death are waiting like a raven in the sky
G D C D C
I was born to die
Em D
Hear me while I live, As I look into your eyes
G D C D C
None shall hear a lie
Em D
Power and dominon are taken by the will
G D C D C
By divine right hail and kill
CHORUS:
Em D C Em Em D C Em
Hail, hail, hail and kill, Hail and kill
Hail, hail, hail and kill, Hail and kill
My father was a wolf
I'm the kinsman of the slain
Sworn to rise again
I will bring salvation, punishment and pain
The hammer of hate is our faith
Power and dominon are taken by the will
By divine right hail and kill
CHORUS
Rip their flesh, Burn their hearts
Stab them in the eyes
Rape their women as they cry
Kill their servants, Burn their homes
Till there's no blood left to spill
Hail and kill
Power and dominon are taken by the will
By divine right hail and kill


Ваше мнение



Капча