INTRO 3x(First time with no Vocals)
Played by Bass
Dm A
-------10--12-|--14-----------14-----------14--------------------|
|-0-----------12---12--12-|--14----14--------14----14-----14-----------------|
|-------12----------------|--12-------12--------12-----------12--------------|
-----------------------------------------------------|
C G Bm
------9---10-/12-|----12----------12-----------------------------|
|---------10------10--10-/12-|-------12----12----12-------------------9------|
|-----10------10-------------|-10-------10------------10~--9--------9---9----|
|-8~---------------------------------------------10--7----------|
F# Am
|-7--9-/11------11---------11---------11----------2-----2--5----7-/9---------|
|-9--9-/11---------11---11----11---11----11-------2---2----7----9-/10--------|
-9--------9----------9----------9-9--0--------------------------|
-----------------------------------------------------------------|
Em(Only 2 first times)
--9--------9-----------------------------------------------------|
|-2----2---------9---9---9---------------------------------------------------|
|-2--2-----7-------7-------7--3-/5-...back-to-start--------------------------|
|-0--------------------------------------------------------------------------|

Riff 1 3x(First time no vocals)
|4x--------------------------------------------------------------|
-----------------------------------------------------|
-----------------------------------------------------|
|-7-7-7-7-7-7--|----------7~------7-----7-----7-----7------------------------|
|-5-5-5-5-5-5--|-7----5-7-----5-7---5-7---5-7---5-7---5-7--------------------|
---|-5-----------------------------------------------------------|
|4x--------------------------------------------------------------|
-----------------------------------------------------|
-----------------------------------------------------|
|-5-5-5-5-5-5--|----------5~------5-----5-----5-----5------------------------|
|-3-3-3-3-3-3--|-5----3-5-----3-5---3-5---3-5---3-5---3-5--------------------|
---|-3-----------------------------------------------------------|
|4x--------------------------------------------------------------|
-----------------------------------------------------|
-----------------------------------------------------|
|-4-4-4-4-4-4--|----------4~------4-----4-----4-----4------------------------|
|-2-2-2-2-2-2--|-4----2-4-----2-4---2-4---2-4---2-4---2-4--------------------|
---|-2-----------------------------------------------------------|
|4x--------------------------------------------------------------|
-----------------------------------------------------|
-----------------------------------------------------|
|-2-2-2-2-2-2----------------------------------------------------|
|-0-0-0-0-0-0--|-2--------7~-------7-----7-----7-----7-----------------------|
---|-0----5-7------5-7---5-7---5-7---5-7---5-7-------------------|
Chorus: D5 - A5 - C5 - G5 - B5 - F#5 - A5 - E5 (Same Chords as in Intro)
Solo (Backround(Guitar 2 plays Riff 1 2x)
|-10-----10-----10-----10-----10-----10-----10-----10-----10-----10----------|
|-13(15)-13(15)-13(15)-13(15)-13(15)-13(15)-13(15)-13(15)-13(15)-13(15)------|
-----------------------------------------------------------------|
-----------------------------------------------------------------|
-----------------------------------------------------------------|
-----------------------------------------------------------------|
|-13-----15-----17-----17-----17-----17-----17-----17-----17-----------------|
|-16(18)-18(20)-20(22)-20(22)-20(22)-20(22)-20(22)-20(22)-20(22)-------------|
-----------------------------------------------------------------|
-----------------------------------------------------------------|
-----------------------------------------------------------------|
-----------------------------------------------------------------|
|-20-17-----------------------------20-17------------------------------------|
|-------20-17-----------------------------20-17------------------------------|
--19-17-----------------------------19-17------------------------|
--------19-17-----------------------------19-17------------------|
--------------19-17-----------------------------19-17------------|
--------------------20--------------------------------20---------|
-----------------------------------------------------------------|
-------------------------------------13(15)-12~---10-12-8-10-7-8-|
-------------10-9-10-12--10-9-10-12------------------------------|
|-10-9-10-12--10-9-10-12-----------------------------------------------------|
-----------------------------------------------------------------|
-----------------------------------------------------------------|
--------------------------14----------14-------------|
|---7------------------------------14----17(19)------14-17(19)---|
|-9---7-9-5----------14h16--16(18)-------------------------------|
---14h16---------------------------------------------|
|--------14h16---------------------------------------------------|
|--14h17---------------------------------------------------------|
|--------17--------------17--------------17--------------17------------------|
|-20(22)----20-17-20(22)----20-17-20(22)----20-17-20(22)----20-17------------|
-----------------------------------------------------------------|
-----------------------------------------------------------------|
-----------------------------------------------------------------|
-----------------------------------------------------------------|
-----------------------------------------------------------------|
|-17-20-17--------20p17--------20p17--------20p17--------20p17--------20p17--|
|----------19(21)-------19(21)-------19(21)-------19(21)-------19(21)--------|
-----------------------------------------------------------------|
-----------------------------------------------------------------|
-----------------------------------------------------------------|
-----------------------------------------------------------------|
|-19(21)-19(21)-19(21)-19(21)-19(21)-19(21)-19(21)-19(21)-19(21)-17~---------|
-----------------------------------------------------------------|
-----------------------------------------------------------------|
-----------------------------------------------------------------|
-----------------------------------------------------------------|
-----------------------------------------------------------------|
-----------------------------------------------------------------|
|-10-9h10p9h10p9h10p9h10p9h10p9-7h9p7-5h7p5h7p5h7p5h7p5h7p5h7p5--12(14)-12(14)
-----------------------------------------------------------------|
-----------------------------------------------------------------|
-----------------------------------------------------------------|
-------------------------------------13(15)-br-10----------------|
--------------------------------------------------13(15)-br-10---|
|-12(14)-12(14)-br-10-12(14)-br-12--12(14)-br-10-----------------------------|
-----------------------------------------------------------------|
-----------------------------------------------------------------|
-----------------------------------------------------------------|
--------------------------------8--------8(11)trill--|
------------------------------8---11(13)-------------|
|-12(14)-br-10---12(14)-------9-10-10(12)------------------------|
-------------|-10-10-10-10-12------------------------------------|
-----------------------------------------------------|
-----------------------------------------------------|
|-15p12h15p12-13p12h13p12h13-10---------12------------12-----------12--------|
---------------------12--------12------------12-----------12-----|
---------------------14(16)--------14(16)-------14(16)-----------|
-----------------------------------------------------------------|
-----------------------------------------------------------------|
-----------------------------------------------------------------|
|--------12------------------------------------------------------------------|
12---13p12h13p12h12p12-10h12p10h12p10-13p10-12p10-13p10-12p10----|
|-14(16)---------------------------------------------------------------------|
-----------------------------------------------------------------|
-----------------------------------------------------------------|
-----------------------------------------------------------------|
--|-17(19)-17(19)----------17(19)-17(19)----------17(19)--17(19)-|
|-13p10-12p10--------15-17------------------15-17----------------|
------16---------------------16----------------------|
-----------------------------------------------------|
-----------------------------------------------------|
-----------------------------------------------------|
|-17(19)--------------------------------------------------------21(13)-19----|
-----17-20--------17-20--------17-20--------17-20-------------19-|
|---------19(21)-------19(21)-------19(21)-------19(21)----------------------|
-----------------------------------------------------------------|
-----------------------------------------------------------------|
-----------------------------------------------------------------|
-------------------------15(17)--17(19)--22(24)------------------|
15(17)-----br-12-15(17)------------------------------------------|
|-4(6)-----------------------------------------------------------------------|
-----------------------------------------------------------------|
-----------------------------------------------------------------|
-----------------------------------------------------------------|
Play Riff 1x
Riff 2(The Screaming-part):

-----------------------------------------|
-----------------------------------------|
-----------------------------------------|
|-7---7---7---7-------|--7---7---7---7------|--7---7---7---7-----------------|
|-5---5---5---5----7--|--5---5---5---5---2--|--5---5---5---5---7-------------|
-------5---------0---------5-------------|
-----------------------------------------------------------------|
-----------------------------------------------------------------|
-----------------------------------------------------------------|
|--7---7----7---7------------------------------------------------------------|
|--5---5----5---5----2-2-2-3-3-3-4-4-4-5-5-5-6-6-6-7-7-7-8-8-8-9-9-9-10--10--|
---------0-0-0-1-1-1-2-2-2-3-3-3-4-4-4-5-5-5-6-6-6-7-7-7-8---8---|
The Outro fill starts here...
-----------------------------------------------------------------|
-----------------------------------------------------------------|
-----------------------------------------------------------------|
-----------------------------------------------------------------|
|-10-11-11-11-12-12-12-13-13-13-14-14-14-14-14-14-14-14-14-14-14-14-14-14-14-|
|-8--9--9--9--10-10-10-11-11-11-12-12-12-12-12-12-12-12-12-12-12-12-12-12-12-|
|-15--------12---------------------------------------------------------------|
|----15(17)----15-12-15-12----12---------------------------------------------|
---------------14----14-12-14-12----12---------------------------|
---------------------------------14----14-12---------------------|
-----------------------------------------------------------------|
-----------------------------------------------------------------|
|-17(19)-15-17-15-14-15-14----14-------22(24)-20-19-----------------------19-|
---------------17----17-15--------------22-20-19-----19-20-22----|
-------------------------------------------------21--------------|
-----------------------------------------------------------------|
-----------------------------------------------------------------|
-----------------------------------------------------------------|
-----19-20-19----20-19----20-19-------------------19-20-19----20-|
|-22-20-19-20-22----------22-------22-------22-22-20-19-20-22----------22----|
-----------------------------------------------------------------|
-----------------------------------------------------------------|
-----------------------------------------------------------------|
-----------------------------------------------------------------|
|-19----20-19-----22(24)-22(24)-22(24)-22(24)-22(24)-------------------------|
|----22-------22-------------------------------------------------------------|
-----------------------------------------------------------------|
-----------------------------------------------------------------|
-----------------------------------------------------------------|
-----------------------------------------------------------------|
-----------------------------------------------------------------|
-----------------------------------------------------------------|
-----------------------------------------------------------------|
|-5----2---------------------------------------------------------------------|
|-3----0---------------------------------------------------------------------|
-----------------------------------------------------------------|




Ваше мнение



Капча