Date: Sun, 01 Dec 1996 21:55:54 +0100
From: Jan Willem Eckhardt
Subject: tab: Manowar - Defender
-----------------------------------------------------------------------------
Defender - Manowar
Fighting the World Album
-----------------------------------------------------------------------------
By: Jan Willem ([email protected])
Intro:
e|---------------------------------|--------------------------------|
B|---------------------------------|--------------------------------|
G|-------2-------------------------|-----2-------2-2------2-------2-|
D|-----2---2-----------------------|---2---2---2--2-2---2---2---2--2|
A|---0-------0---------------------|-0-------0--------0-------0-----|
E|---------------------------------|--------------------------------|
e|--------------------------------------------------------------------|
B|--------------------------------------------------------------------|
G|---------5-------7----------10-----------------2--------------------|
D|-------5-------7---------10---------12-------2---2------------------|
A|-0-2-3-----3-5-----5-7-8-------8-10----10--0-------0----------------|
E|--------------------------------------------------------------------|
During spoken parts:
e|------------------------------------------------------|
B|------------------------------------------------------|
G|-----2-------2-2------2-------2---------5-------7-----|
D|---2---2---2--2-2---2---2---2--2------5-------7-------|
A|-0-------0--------0-------0-----0-2-3-----3-5-----5-0-|
E|------------------------------------------------------|
During refrain:
F G C D F G D
F G C D F G E
Begin 2nd part:
Father[A], Father[A]
e|-----------|
B|-----------|
G|---------5-|
D|-------5---|
A|-0-2-3-----|
E|-----------|
Father I look up to you
And so on.
This is all I have of this song, so if somebody has any corrections
and/or additions to this, send them please.




Ваше мнение



Капча