Intro:
e-------------------------------------------|
B-------------------------------------------|
G|-------2---------------------------2-2------2-------2-|
D|-----2---2-----------------------|---2---2---2--2-2---2---2---2--2|
A|---0-------0---------------------|-0-------0--------0-------0-----|
E-------------------------------------------|
e---------------------------------------------------------|
B---------------------------------------------------------|
G|---------5-------7----------10-----------------2--------------------|
D|-------5-------7---------10---------12-------2---2------------------|
A|-0-2-3-----3-5-----5-7-8-------8-10----10--0-------0----------------|
E---------------------------------------------------------|
During spoken parts:
e-------------------------------------------|
B-------------------------------------------|
G--2-2------2-------2---------5-------7-----|
D|---2---2---2--2-2---2---2---2--2------5-------7-------|
A|-0-------0--------0-------0-----0-2-3-----3-5-----5-0-|
E-------------------------------------------|
During refrain:
F G C D F G D
F G C D F G E
Begin 2nd part:
Father[A], Father[A]
e|
B|
G|---------5-|
D|-------5---|
A|-0-2-3-----|
E|
Father I look up to you
And so on.
This is all I have of this song, so if somebody has any corrections
and/or additions to this, send them please.
Here is the songtext:
When you are old enough to read this words
Their meaning will unfold
These words all that´s left
And though we´ve never meet, my only son
I hope you know
That I would have been there to watch you grow
But my call was heard and I did go
Now your mission lies ahead of you
As it did mine so long ago
To help the helpless ones who all look up to you
And to defend them so the end
Defender
Ride like the wind
Fight proud, my son
You´re the defender
God has sent
Father, father, father
I look up to you and heed thy call
This letter ends my search
I´ll live your dream now passed on to me
And I now wait to shake the hand of fate
Like the dusk awaiting dawn
So wizards cast your spell
With no heart to do me well
So it´s written, it shall be
Defender
Ride like the wind
Fight proud, my son
You´re the defender
God has sent




Ваше мнение



Капча