-------------------------------------------------------------------
Battle Hymn
by Manowar
Taken from the album
Battle Hymns
-------------------------------------------------------------------
tab by: MARTIN ANTTONEN FROM SWEDEN/KARLSTAD
this is the way I play Battel Hymn, and I think is sounds
very correct.(I am allmost sure that it is the way
manowar play it)
and if you want to contact me if it would be wrong
or you maybe want to thank me her is my hotmail: [email protected]
[email protected]--
Repeat:x4 times
E---0-3-0-5-0-7-0-12-0-10-0--7-------7-------7--5-------5-------5---
B------------------------------8---8---8---8------7---7---7---7-----
G--------------------------------9-------9----------7-------7-------
D-------------------------------------------------------------------
A-------------------------------------------------------------------
E-0-----------------------------------------------------------------
E-3-------3-------3--2-------2-------2------------------------------
B---5---5---5---5------3---3---3---3--------------------------------
G-----5-------5----------4-------4----------------------------------
D-------------------------------------------------------------------
A-------------------------------------------------------------------
E-------------------------------------------------------------------
I hope you will enjoy this tab!
PLAY IT LOUDER THAN HELL!




Ваше мнение



Капча