MALA VIDA
Mano Negra
Patchanka - 1988
------------------------------------------------------------------------

Intro

Dm E G
soleil solei__________

Am F Dm E
e--8-8--8-8----7-8------8-8--8-8----7-8------8-8--8-8----7-8-7----
b-----------10-----10------------10-----10------------10----------
g-----------------------------------------------------------------

E F
Tu me estas dando mala vida

E F
Yo pronto me voy a escapar

E F
Gitana mia por lo menos date cuenta

E F
Gitana mia por favor tu ne me dejas ni respirar

G Am
Tu me estas dando Mala vida

e--------------------------------8-8--8-8----7-8------------------
b-----------------------------------------10-----10---------------

F
Ca' di' se 'a tra' mi corazon

Am
Dime tu porque te trato yo tan bien

F
Cuando tu me hablas como a un cabron

Am F
Gitana mia mi corazon esta suffriendo

Am F
Gitana mia por favor sufriendo mal nutricion

G Am
Me estas dando m'estas dando mala vida

e-----------------------------------------8-8--8-8----7-8---------
b--------------------------------------------------10-----10------

F
Ca' di' se 'a tra' mi corazon

Am
Dime tu porque te trato yo tan bien

F
Cuando tu me hablas como a un cabron

G Am
Me estas dando m'estas dando Chй_________

F Dm E
mi corazon

e--8-8--8-8----7-8------8-8--8-8----7-8------8-8--8-8----7-8-7----
b-----------10-----10------------10-----10------------10----------

Am F Dm E
e--8-8--8-8----7-8------8-8--8-8----7-8------8-8--8-8----7-8-7----
b-----------10-----10------------10-----10------------10----------

Dm E G
soleil solei__________

Am F Dm E
e--8-8--8-8----7-8------8-8--8-8----7-8------8-8--8-8----7-8-7----
b-----------10-----10------------10-----10------------10----------

E F
Tu me estas dando mala vida

E F
Yo pronto me voy a escapar

E F
Gitana mia por lo menos date cuenta

E F
Gitana mia por favor tu ne me dejas ni respirar

G Am
Tu m'estas dando m'estas dando mala vida

e-------------------------------------------8-8--8-8----7-8-------
b----------------------------------------------------10-----10----

Am F Am F
Ca' di' se 'a tra' mi corazon Ca' di' se 'a tra' mi corazon

Am F Am F
Ca' di' se 'a tra' mi corazon Ca' di' se 'a tra' mi corazon

Am F Am
Ca' di' se 'a tra' mi corazon Ca' di' se 'a tra' mi corazon

Am F G
Ca' di' se 'a tra' mi corazon solei__________

Am F Dm E
e--8-8--8-8----7-8------8-8--8-8----7-8------8-8--8-8----7-8-7----
b-----------10-----10------------10-----10------------10----------

Am F Dm E
mi corazon

e--8-8--8-8----7-8------8-8--8-8----7-8------8-8--8-8----7-8-7----
b-----------10-----10------------10-----10------------10----------

Am F Dm E
mi corazon
e--8-8--8-8----7-8------8-8--8-8----7-8------8-8--8-8----7-8-7----
b-----------10-----10------------10-----10------------10----------

Am F Dm E Am
e--8-8--8-8----7-8------8-8--8-8----7-8------8-8--8-8----7-8-7----
b-----------10-----10------------10-----10------------10----------




Ваше мнение



Капча