YOU STOLE THE SUN FROM MY HEART - Bass Version
[INTRO]
G|--------|
D|--------|
A|-4-bars-|
E|--------|
G|-------------|-------------|
D|-2---------2-|-2---------2-|
A|-------------|-------------| x4
E|-------------|-------------|
[VERSE 1]
G|-------------|-------------|
D|-2---------2-|-2---------2-|
A|-------------|-------------| x3
E|-------------|-------------|
G|-------------|-------------------------|
D|-2-----------|----2-----------2-----4--|
A|-----------2-|-4--------2--4-----------|
E|-------------|-------------------------|
[VERSE 2]
G|-------------|-------------|
D|-2---------2-|-2---------2-|
A|-------------|-------------| x3
E|-------------|-------------|
G|-------------|-------------------------|
D|-2-----------|----2-----------2-----4--|
A|-----------2-|-4--------2--4-----------|
E|-------------|-------------------------|
[CHORUS]
G|-------------------------|-------------------------|
D|-------------------------|-------------------------|
A|-2-----2--2--0--2--2--0--|-2-----2--2--0--2--2--0--|
E|-------------------------|-------------------------|
G|-------------------------|-------------------------|
D|----------------2--4--2--|----------------2--4--2--|
A|----------2--4-----------|----------2--4-----------|
E|-0-----0-----------------|-0-----0-----------------|
G|-------------------------|-------------------------|
D|-------------------------|-------------------------|
A|-4-----------4-----4--4--|-------------------------|
E|-------------------------|-4-----------4-----4--4--|
G|-------------------------|-------------------------|
D|-------------------------|-------------------------|
A|-5--------------------5--|-5--5--5--5--5--5--5--5--|
E|-------------------------|-------------------------|
G|-------------------------|-------------------------|
D|-------------------------|-------------------------|
A|-2-----2--2--0--2--2--0--|-2-----2--2--0--2--2--0--|
E|-------------------------|-------------------------|
G|-------------------------|-------------------------|
D|----------------2--4--2--|----------------2--4--2--|
A|----------2--4-----------|----------2--4-----------|
E|-0-----0-----------------|-0-----0-----------------|
G|-------------------------|-------------------------|
D|-------------------------|-------------------------|
A|-4-----------4-----4--4--|-------------------------|
E|-------------------------|-4-----------4-----4--4--|
G|-------------------------|-------------------------|
D|-------------------------|-------------------------|
A|-2-----------2-----2--2--|-------------------------|
E|-------------------------|-2-----------2-----2--2--|
G|-------------------------|-------------------------|
D|-------------------------|-------------------------|
A|-------------------------|-------------------------|
E|-1--------1--1--------1--|-1-----------1-----------|
G|-------------|-------------|
D|-2---------2-|-2---------2-|
A|-------------|-------------| x2
E|-------------|-------------|
[VERSE 3]
G|-------------|-------------|
D|-2---------2-|-2---------2-|
A|-------------|-------------| x3
E|-------------|-------------|
G|-------------|-------------------------|
D|-2-----------|----2-----------2-----4--|
A|-----------2-|-4--------2--4-----------|
E|-------------|-------------------------|
[VERSE 4]
G|-------------|-------------------------------------------------|
D|-2---------2-|-2-----------------------2h-4p-2h-4p-2h-4p-2h-4p-|
A|-------------|-------------------------------------------------| x2
E|-------------|-------------------------------------------------|
G|-------------|-------------|
D|-2---------2-|-2---------2-|
A|-------------|-------------|
E|-------------|-------------|
G|-------------|-------------------------|
D|-2-----------|----2-----------2-----4--|
A|-----------2-|-4--------2--4-----------|
E|-------------|-------------------------|
[CHORUS]
G|-------------------------|-------------------------|
D|-------------------------|-------------------------|
A|-2-----2--2--0--2--2--0--|-2-----2--2--0--2--2--0--|
E|-------------------------|-------------------------|
G|-------------------------|-------------------------|
D|----------------2--4--2--|----------------2--4--2--|
A|----------2--4-----------|----------2--4-----------|
E|-0-----0-----------------|-0-----0-----------------|
G|-------------------------|-------------------------|
D|-------------------------|-------------------------|
A|-4-----------4-----4--4--|-------------------------|
E|-------------------------|-4-----------4-----4--4--|
G|-------------------------|-------------------------|
D|-------------------------|-------------------------|
A|-5--------------------5--|-5--5--5--5--5--5--5--5--|
E|-------------------------|-------------------------|
G|-------------------------|-------------------------|
D|-------------------------|-------------------------|
A|-2-----2--2--0--2--2--0--|-2-----2--2--0--2--2--0--|
E|-------------------------|-------------------------|
G|-------------------------|-------------------------|
D|----------------2--4--2--|----------------2--4--2--|
A|----------2--4-----------|----------2--4-----------|
E|-0-----0-----------------|-0-----0-----------------|
G|-------------------------|-------------------------|
D|-------------------------|-------------------------|
A|-4-----------4-----4--4--|-------------------------|
E|-------------------------|-4-----------4-----4--4--|
G|-------------------------|-------------------------|
D|-------------------------|-------------------------|
A|-2-----------2-----2--2--|-------------------------|
E|-------------------------|-2-----------2-----2--2--|
G|-------------------------|-------------------------|
D|-------------------------|-------------------------|
A|-------------------------|-------------------------|
E|-1--------1--1--------1--|-1-----------1-----------|
G|-------------|-------------|
D|-2---------2-|-2---------2-|
A|-------------|-------------| x2
E|-------------|-------------|
[VERSE 5]
G|-------------|-------------|
D|-2---------2-|-2---------2-|
A|-------------|-------------| x3
E|-------------|-------------|
G|-------------|-------------------------|
D|-2-----------|----2-----------2-----4--|
A|-----------2-|-4--------2--4-----------|
E|-------------|-------------------------|
[CHORUS]
G|-------------------------|-------------------------|
D|-------------------------|-------------------------|
A|-2-----2--2--0--2--2--0--|-2-----2--2--0--2--2--0--|
E|-------------------------|-------------------------|
G|-------------------------|-------------------------|
D|----------------2--4--2--|----------------2--4--2--|
A|----------2--4-----------|----------2--4-----------|
E|-0-----0-----------------|-0-----0-----------------|
G|-------------------------|-------------------------|
D|-------------------------|-------------------------|
A|-4-----------4-----4--4--|-------------------------|
E|-------------------------|-4-----------4-----4--4--|
G|-------------------------|-------------------------|
D|-------------------------|-------------------------|
A|-5--------------------5--|-5--5--5--5--5--5--5--5--|
E|-------------------------|-------------------------|
G|-------------------------|-------------------------|
D|-------------------------|-------------------------|
A|-2-----2--2--0--2--2--0--|-2-----2--2--0--2--2--0--|
E|-------------------------|-------------------------|
G|-------------------------|-------------------------|
D|----------------2--4--2--|-------------------------|
A|----------2--4-----------|-------------------------|
E|-0-----0-----------------|-0-----0-----0--0--0--0--|
G|-------------------------|-------------------------|
D|-------------------------|-------------------------|
A|-4-----------4-----4--4--|-------------------------|
E|-------------------------|-4-----------4-----4--4--|
G|-------------------------|-------------------------|
D|-------------------------|-------------------------|
A|-2-----------2-----2--2--|-------------------------|
E|-------------------------|-2-----------2-----2--2--|
G|-------------------------|-------------------------|
D|-------------------------|-------------------------|
A|-------------------------|-------------------------|
E|-1--------1--1--------1--|-1-----------1-----------|
G|-------------|-------------|
D|-2---------2-|-2---------2-|
A|-------------|-------------| x2
E|-------------|-------------|
[VERSE 6]
G|-------------|-------------|
D|-2---------2-|-2---------2-|
A|-------------|-------------| x3
E|-------------|-------------|
G|-------------|
D|-2-----------|
A|-------------|
E|-------------|




Ваше мнение



Капча