Title: Yes
Artist: Manic Street Preachers
Album: The Holy bible
Tabbed: Bugman ([email protected])
Verse:
G|-----------------------------|--------------------------------|
D|--------------7---7---7----9-|--------------9---7-------7-9-7-|
A|7-7-7-7-7-7-7----------------|7-7-7-7-7-7-7---------9---------|
E|-----------------------------|--------------------------------|
Bridge:
G|--------------------------------|--------------------------------|
D|--------------------------------|7-7---6-6---4-------------------|
A|--------------------------------|----------------7---7---7-------|
E|5---5---5-5---5-5-5-5---5-5-----|--------------------------------|
G|--------------------------------|--------------------------------|
D|----------4-6-----------4-6-----|------------------6-----6---6---|
A|4-----4-6-----4-----4-6---------|--------------------------------|
E|--------------------------------|4---4---4-4-4---------4---4-----|
(x 2)
G|--------------------------------|
D|------------------2-------------|
A|2---2---2-2-2-2-4---4-2---2-2-2-|
E|--------------------------------|
G|--------------------------------|--------------------------------|
D|--------------------------------|--------------------------------|
A|--------------------------------|--------------------------------|
E|0-0-0-0---0-0-0-0-0-0-0---0-0-0-|0-0-0-0---0-0-0-0-0-0-0---0-0-0-|
G|--------------------------------|--------------------------------|
D|--------------------------------|--------------------------------|
A|--------------------------------|6-7-6-7-6-7-6-7-6-7-6-7-6-7-6-7-|
E|0-0-0-0---0-0-0-0-0-0-0---0-0-0-|--------------------------------|
That's it. It is hard to hear the bass from the Manic's songs, but
this is pretty much as it sounds.




Ваше мнение



Капча