Tsunami
Manic Street Preachers
Sitar Riff
I've attemted to put this on guitar - It's a bit tricky.
For the F#, use the third finger to play all three strings
at eleventh fret - you should learn to do this anyway.
F# Bbm7
------------------------ ---------8-9-8----|
----------11-12-11------ -------9-------9--|
-------11----------11--- ----10------------|
----11------------------ ---8--------------|
--9--------------------- -8----------------|
9----------------------- ------------------|
Ebm7 B
------------13-14-13---- -----------------------|
---------16----------16- -----------16-17-16----|
------15---------------- --------16----------16-|
---13------------------- -----16----------------|
13---------------------- ---14------------------|
------------------------ 14---------------------|
Repeat each riff as necessary. The second two
Chords
F# Bbm7 Ebm B Db F
2 6 6 7 9 1
2 6 7 7 9 1
3 6 8 8 10 2
4 6 8 9 11 3
4 8 6 9 11 3
2 6 - 7 9 1
F#
FOR YOU MY DEAR SISTER
Bbm7
HOLDING ON TO ME FOREVER
Ebm
DISCO DANCING WITH THE RAPISTS
B
YOUR ONLY CRIME IS SILENCE
F#
CAN'T WORK AT THIS ANYMORE
Bbm7
CAN'T MOVE I WANT TO STAY AT HOME
Ebm
TIED UP TO ALL THESE CRUTCHES
B
NEVER FAR FROM YOUR HANDS
Db B
TSUNAMI TSUNAMI CAME WASHING OVER ME
Db B
TSUNAMI TSUNAMI CAME WASHING OVER ME
Db F F#
CAN'T SPEAK CANT THINK WONT TALK WONT WALK
DOCTORS TELL ME THAT I'M CYNICAL
Bbm7
I TELL THEM THAT IT MUST BE CHEMICAL
Ebm
SO WAHT AM I DOING GIRL
B
CRY INTO MY DRINK I DISAPPEAR
F#
EYES FOR TEETH GRATING OVER ME
Bbm7
BRING DOWN THE SHADOWS OF MY MIND
Ebm
SLEEP AND BREATH UNDER OUR SHEETS
INHALE THE ANXIETY
B
INBETWEEN INBETWEEN
INBETWEEN INBETWEEN
Db B
TSUNAMI TSUNAMI CAME WASHING OVER ME
Db B
TSUNAMI TSUNAMI CAME WASHING OVER ME
Db F F#
THROUGH SEPTEMBER UNDER THE WEATHER
F# Bbm7 Eb
B
INBETWEEN INBETWEEN
INBETWEEN INBETWEEN
Db B
TSUNAMI TSUNAMI CAME WASHING OVER ME
Db B
TSUNAMI TSUNAMI CAME WASHING OVER ME
Db F F#
TAKE THE GI'S I WILL HAVE THE SIES
Pete Forbes




Ваше мнение



Капча