----------------------------------------------------------------------
THERE BY THE GRACE OF GOD - Manic Street Preachers
----------------------------------------------------------------------

By: Sam Murphy

tuning: EADGBe

INTRO
e]-----0-0-0-0-0-0-0-0-----2-2-2-2-2-2-2-2-
B]-5-0-2-2-2-2-2-2-2-2-5-0-2-2-2-2-2-2-2-2-
G]-6-9-2-2-2-2-2-2-2-2-6-6-2-2-2-2-2-2-2-2- X2
D]-6-9-2-2-2-2-2-2-2-2-6-6-0-0-0-0-0-0-0-0-
A]-4-7-0-0-0-0-0-0-0-0-4-4-0-0-0-0-0-0-0-0-
E]-----0-0-0-0-0-0-0-0-----0-0-0-0-0-0-0-0-

e]-----0-
B]-5-5-0-
G]-6-6-2-
D]-6-6-2-
A]-4-4-0-
E]-----0-

VERSE ONE
e]-------------------------0--------0---0-0-0-0-0-0-
B]----5----------0---------2--------2---2-2-2-2-2-2-
G]----6----------6---------2--------2---2-2-2-2-2-2-
D]----6----------6---------2--------2---2-2-2-2-2-2-
A]----4----------4---------0--------0---0-0-0-0-0-0-
E]-------------------------0--------0---0-0-0-0-0-0-
and all the drugs in the world
victims with the saddest hearts

e]-----------------------2--------2----2-2-2-2-2-2-
B]----5---------0--------2--------2----2-2-2-2-2-2-
G]----6---------6--------2--------2----2-2-2-2-2-2-
D]----6---------6--------0--------0----0-0-0-0-0-0-
A]----4---------4--------0--------0----0-0-0-0-0-0-
E]-----------------------0--------0----0-0-0-0-0-0-
can't save us from ourselves
passing by the grace of god

e]------------------0----------0-0-0-0-0-
B]----5-----0-------0----------0-0-0-0-0-
G]----6-----6-------2----------2-2-2-2-2-
D]----6-----6-------2----------2-2-2-2-2-
A]----4-----4-------0----------0-0-0-0-0-
E]------------------0----------0-0-0-0-0-
there by the grace of god

CHORUS ONE
e]-----0-0-0-0-0-0-0-------------0-0-0-0-0-0-0-0-0-2-2-2-2-2-2-2-2-
B]-----2-2-2-2-2-2-2-------------0-0-0-0-0-0-0-0-0-3-3-3-3-3-3-3-3-
G]-----2-2-2-2-2-2-2-3-3-3-3-3-3-1-1-1-1-1-1-1-1-1-2-2-2-2-2-2-2-2-
D]-----2-2-2-2-2-2-2-4-4-4-4-4-4-2-2-2-2-2-2-2-2-2-0-0-0-0-0-0-0-0-
A]-----0-0-0-0-0-0-0-4-4-4-4-4-4-2-2-2-2-2-2-2-2-2-0-0-0-0-0-0-0-0-
E]-----0-0-0-0-0-0-0-2-2-2-2-2-2-0-0-0-0-0-0-0-0-0-0-0-0-0-0-0-0-0-
with grace we will suffer with grace we shall recover

e]-----------------0--------------------------2-----------
B]----5-----0------2-------------5-----0------2-----------
G]----6-----6------2-------------6-----6------2-----------
D]----6-----6------2-------------6-----6------0-----------
A]----4-----4------0-------------4-----4------0-----------
E]-----------------0-------------4-----4------0-----------
there by the grace of god there by the grace of god

INSTRUMENTAL ONE
e]-----0-0-0-0-0-0-0-----2-2-2-2-2-2-2-
B]-5-0-2-2-2-2-2-2-2-5-0-2-2-2-2-2-2-2-
G]-6-9-2-2-2-2-2-2-2-6-6-2-2-2-2-2-2-2-
D]-6-9-2-2-2-2-2-2-2-6-6-0-0-0-0-0-0-0-
A]-4-7-0-0-0-0-0-0-0-4-4-0-0-0-0-0-0-0-
E]-----0-0-0-0-0-0-0-----0-0-0-0-0-0-0-

VERSE TWO
e]-------------------------0--------0---0-0-0-0-0-0-
B]----5----------0---------2--------2---2-2-2-2-2-2-
G]----6----------6---------2--------2---2-2-2-2-2-2-
D]----6----------6---------2--------2---2-2-2-2-2-2-
A]----4----------4---------0--------0---0-0-0-0-0-0-
E]-------------------------0--------0---0-0-0-0-0-0-
lay down all your guns
it doesn't mean that you are dead

e]-----------------------2--------2----2-2-2-2-2-2-
B]----5---------0--------2--------2----2-2-2-2-2-2-
G]----6---------6--------2--------2----2-2-2-2-2-2-
D]----6---------6--------0--------0----0-0-0-0-0-0-
A]----4---------4--------0--------0----0-0-0-0-0-0-
E]-----------------------0--------0----0-0-0-0-0-0-
give them up and then move on
passing by the grace of god

e]------------------0----------0-0-0-0-0-
B]----5-----0-------0----------0-0-0-0-0-
G]----6-----6-------2----------2-2-2-2-2-
D]----6-----6-------2----------2-2-2-2-2-
A]----4-----4-------0----------0-0-0-0-0-
E]------------------0----------0-0-0-0-0-
there by the grace of god

CHORUS TWO
e]-----0-0-0-0-0-0-0-------------0-0-0-0-0-0-0-0-0-2-2-2-2-2-2-2-2-
B]-----2-2-2-2-2-2-2-------------0-0-0-0-0-0-0-0-0-3-3-3-3-3-3-3-3-
G]-----2-2-2-2-2-2-2-3-3-3-3-3-3-1-1-1-1-1-1-1-1-1-2-2-2-2-2-2-2-2-
D]-----2-2-2-2-2-2-2-4-4-4-4-4-4-2-2-2-2-2-2-2-2-2-0-0-0-0-0-0-0-0-
A]-----0-0-0-0-0-0-0-4-4-4-4-4-4-2-2-2-2-2-2-2-2-2-0-0-0-0-0-0-0-0-
E]-----0-0-0-0-0-0-0-2-2-2-2-2-2-0-0-0-0-0-0-0-0-0-0-0-0-0-0-0-0-0-
with grace we will suffer with grace we shall recover

e]-----------------0--------------------------2-----------
B]----5-----0------2-------------5-----0------2-----------
G]----6-----6------2-------------6-----6------2-----------
D]----6-----6------2-------------6-----6------0-----------
A]----4-----4------0-------------4-----4------0-----------
E]-----------------0-------------4-----4------0-----------
there by the grace of god there by the grace of god

e]-----0-0-0-0-0-0-0-------------0-0-0-0-0-0-0-0-0-2-2-2-2-2-2-2-2-
B]-----2-2-2-2-2-2-2-------------0-0-0-0-0-0-0-0-0-3-3-3-3-3-3-3-3-
G]-----2-2-2-2-2-2-2-3-3-3-3-3-3-1-1-1-1-1-1-1-1-1-2-2-2-2-2-2-2-2-
D]-----2-2-2-2-2-2-2-4-4-4-4-4-4-2-2-2-2-2-2-2-2-2-0-0-0-0-0-0-0-0-
A]-----0-0-0-0-0-0-0-4-4-4-4-4-4-2-2-2-2-2-2-2-2-2-0-0-0-0-0-0-0-0-
E]-----0-0-0-0-0-0-0-2-2-2-2-2-2-0-0-0-0-0-0-0-0-0-0-0-0-0-0-0-0-0-
with grace we will suffer with grace we shall recover

e]-----------------0--------------------------2-----------
B]----5-----0------2-------------5-----0------2-----------
G]----6-----6------2-------------6-----6------2-----------
D]----6-----6------2-------------6-----6------0-----------
A]----4-----4------0-------------4-----4------0-----------
E]-----------------0-------------4-----4------0-----------
there by the grace of god there by the grace of god

REPEAT INTRO

BRIDGE
e]-------------------------0--------0---0-0-0-0-0-0-
B]----5----------0---------2--------2---2-2-2-2-2-2-
G]----6----------6---------2--------2---2-2-2-2-2-2-
D]----6----------6---------2--------2---2-2-2-2-2-2-
A]----4----------4---------0--------0---0-0-0-0-0-0-
E]-------------------------0--------0---0-0-0-0-0-0-
and all the drugs in the world

e]-----------------------2--------2----2-2-2-2-2-2-
B]----5---------0--------2--------2----2-2-2-2-2-2-
G]----6---------6--------2--------2----2-2-2-2-2-2-
D]----6---------6--------0--------0----0-0-0-0-0-0-
A]----4---------4--------0--------0----0-0-0-0-0-0-
E]-----------------------0--------0----0-0-0-0-0-0-

REPEAT CHORUS TWO

INSTRUMENTAL TWO
e]-----------------------2--------2----2-2-2-2-2-2-
B]----5---------0--------2--------2----2-2-2-2-2-2-
G]----6---------6--------2--------2----2-2-2-2-2-2-
D]----6---------6--------0--------0----0-0-0-0-0-0-
A]----4---------4--------0--------0----0-0-0-0-0-0-
E]-----------------------0--------0----0-0-0-0-0-0-

REPEAT VERSE ONE

ENDING
e]------------------0----------
B]----5-----0-------0----------
G]----6-----6-------2----------
D]----6-----6-------2----------
A]----4-----4-------0----------
E]------------------0----------
there by the grace of god


Ваше мнение



Капча