tuning low to high e,a,d,g,b,e

intro
|------------------------------|
|---------1-0------------------|
|-------2------------0-2-0-2-0-|
|-----2------------2-----------| x1
|---0------------0-------------|
|-3------------3---------------|

verse and chorus - palm muted
|-----------------------------------------------------------------|
|-----------------------------------------------------------------|
|-7-7-7-7-7-7-7-7-----------------5-5-5-5-5-5-5-5-2-2-2-2-2-2-2-2-|
|-7-7-7-7-7-7-7-7-5-5-5-5-5-5-5-5-5-5-5-5-5-5-5-5-2-2-2-2-2-2-2-2-|
|-5-5-5-5-5-5-5-5-5-5-5-5-5-5-5-5-3-3-3-3-2-2-2-2-0-0-0-0-0-0-0-0-|
|-----------------3-3-3-3-3-3-3-3---------------------------------|

fill after 2nd chorus
|------------------------|
|------------------------|
|------------------------|
|-----------5-7-9--5h7p5-| x1
|-----3-5-7--------------|
|-3-5--------------------|

bridge
|-------------------------|
|-------------------------|
|-------5-4---------------|
|------------7-5-7-5--7-5-|
|-----7-------------------| x8
|-3-5---------------------|




Ваше мнение



Капча