MANIC STREET PREACHERS
SMALL BLACK FLOWERS THAT GROW IN THE SKY


This is a beautiful song and it is played on an acoustic guitar.


Tuning:DGDGBD


Chords
G:x00000
Em7:240000


INTRO


------------------------------------------------------------------------------
---------------------------------------------12-------------12------10--------
--------9-------------9--------------------0----0---------0----0-------0------
------0---0---------0---0---------------10--------10---12--------12------12---
---10-------10---10-------10---10---0-0--------------0----------------------0-
-0-------------0-------------0----0------------------------------------------- x2


VERSE


Intro riff x4


CHORUS


G Em7 x2


---------------------------------------------------------------------------
---------------------------------------------------------------------------
-------0-----------0---------------------0--------------0------------------
-----4---4-------4---4-----------------0---0----------0---0----------------
---2-------2---2-------2---2---0----12-------12----12-------12----12----12-
-0-----------0-----------0---0---10-------------10-------------10----10----


-----------------------------------------------------------------------------
-----------------------------------------------------------------------------
--------0-------------0-----------------------0-------------0----------------
------0---0---------0---0-------------------0---0---------0---0--------------
---11-------11---11-------11---11---11---10-------10---10-------10---10---10-
-9-------------9-------------9----9----8-------------8-------------8----8----


---------------------------------------
---------------------------------------
--------0-------------0----------------
------0---0---------0---0--------------
---10-------10---10-------10---10---10-
-8-------------8-------------8----8----


INTERLUDE


Intro riff x1


REPEAT VERSE


REPEAT CHORUS


OUTRO


------------------------------------------------------------------------------
---------------------------------------------12-------------12------10--------
--------9-------------9--------------------0----0---------0----0-------0------
------0---0---------0---0---------------10--------10---12--------12------12---
---10-------10---10-------10---10---0-0--------------0------------------------
-0-------------0-------------0----0-------------------------------------------


-0-------
-10------
-0-------
-12------
-0-------
---------


You can email about stuff if yoy want to. I will reply.
[email protected]
Please visit my website.
http://www.homestead.com/slaughtertabs




Ваше мнение



Капча