t. See http://www.olga.net/faq/ for more information. #
Date: Mon, 10 Jan 2000 01:16:37 -0800 (PST)
From: Jaakko Pimperi
Subject: manic_street_preachers/ready_for_drowning.tab
Manic Street Preachers - "Ready For Drowning"
Music By : James Dean Bradfield & Sean Moore
Lyrics By : Nick Jones (a.k.a Nicky Wire)
From The Album : This Is My Truth Tell Me Yours (trk. 4)
--------------------------------------------
Tabbed By: Jaakko Pimperi ([email protected])
29.5.1999 V1.0
A beautiful song from a beautiful album...
more songs from "this is..." comin' up
Intro:
-----
G ,D ,Am ,F
Organ Part: (Organ arr. for guitar)
----------
G D Am
e-||-------------------------------------------------------------------
B-||--12--12-10-12-10------------------------10-10--10-10----12-13--13-
G-||:-----------------12--12--11--11-9-11-12--------------12-----------
D-||:------------------------------------------------------------------
A-||-------------------------------------------------------------------
E-||----------------(Repeat once)--------------------------------------
C
e-|--12--12--10-12-10------||
B-|-------------------13---||
G-|-----------------------:||
D-|-----------------------:||
A-|------------------------||
E-|------------------------||
Verse1:
------
C#m C G
Here's a true story .....
Em
C#m C G
Must have ......
Em Am
put it .......
C G
deny it's history, deny it's history
Fill A: (I'm not sure about this one)
------
e-|--------------------------------------------|
B-|-12-12-12-12-10-8-10-8-7-5-7-5-3-5b(7)-3-5--|
G-|--------------------------------------------|
D-|--------------------------------------------|
A-|--------------------------------------------|
E-|--------------------------------------------|
Chorus:
------
Em Am D G G/F#
Em Am D G G/F#
Verse2:
------
[Fill A]
[Repeat Chorus]
Interlude: (or is it Middle 8? I have no idea :-)
---------
Em C#m (Repeat 4 times)
aaaaah haaaaaaaaah
C G Em Am C G
(spoken:) I will bring ......
[Fill A]
[Repeat Chorus]
Outro: (Same as Organ Part)
-----
=====
**************************************
* Jaakko Pimperi | [email protected] *
**************************************




Ваше мнение



Капча