tuning low to high - e,a,d,g,b,e
intro
|-----------------------------------------------------------|
|-----------------------------------------------------------|
|-----------------------------------------------------------|
|-----------------------------------------------------------|
|--------------------------------------------------12~~~----|
|-xxxxx/x/x/x/xxxxx/x/x/x/xxxxx/x/x/x/x---------|
|-----------------------------------------------------------|
|-----------------------------------------------------------|
|-----------------------------------------------------------|
|-----------------------------------------------------------|
|--------------------------------------------------13~~~----|
|-xxxxx/x/x/x/xxxxx/x/x/x/xxxxx/x/x/x/x---------|
|------------------------------------------|
|------------------------------------------|
|------------------------------------------|
|---------5-4-------------------5-4--------|
|---7-5-7-----5-----------7-5-7-----5------|
|-5-------------5~~~--5-5-------------6~~~-|
verse
|-----------------------------------------------------------|
|-----------------------------------------------------------|
|-----------------------------------------------------------|
|---------5-4--------------------------5-4------------------|
|---7-5-7-----5------------------7-5-7-----5----------------| x4
|-5-------------5--5-5--5-5--5-5-------------6--6-6--6-6--6-|
|-----------------------------------------------------------------|
|-----------------------------------------------------------------|
|---5---5---5---5---3---3---3---3---5---5---5---5---3---3---2---2-|
|-----------------------------------------------------------------|
|-3---3---3---3---1---1---1---1---3---3---3---3---1---1---0---0---| x1
|-----------------------------------------------------------------|
chorus
|-----------------------------------------------------------------|
|-----------------------------------------------------------------|
|-8-----8-----8---7-----7-----7---6-----6-----6---5-----5-----5---|
|-8-----8-----8---7-----7-----7---6-----6-----6---5-----5-----5---| x4
|-6-6-6-6-6-6-6-6-5-5-5-5-5-5-5-5-4-4-4-4-4-4-4-4-3-3-3-3-3-3-3-3-|
|-----------------------------------------------------------------|
outro (little people etc)
|----------------------|
|----------------------|
|----------------------|
|----------------------|
|----------------------|
|-5-5-6-0--3-5-5-6-0-3-|
(whos responsible etc)
|-----------------------|
|-----------------------|
|-7-7-8--2-5-7-7-8--2-5-|
|-7-7-8--2-5-7-7-8--2-5-|
|-----------------------|
|-----------------------|
/ = slide up
= slide down
x = mute




Ваше мнение



Капча