#----------------------------------PLEASE NOTE--------------------------------#
#This file is the author's own work and represents their interpretation of the#
#song. You may only use this file for private study, scholarship, or research.#
#-----------------------------------------------------------------------------#
#-- File created with Instab - http://www.pconline.com/~smcarey/instab.html --#
#-----------------------------------------------------------------------------#
Author/Artist: Manic Street Preachers
Title: No Surface All Feeling
Album: Everything Must Go ('1996)
Transcribed by: Jamie Wharton and Ian Deslamont
CHORDS EADGBE
E = 022100
F#m = 244222
Am = 577555
G#m = 466400
Gm = 3553xx
F#m7add13 = 244200
Asus2 = x02200
Intro-
e|-------15-------------13-------------11-------------10------------8------11-
B|----11-------11----11-------11----11-------11----11----11-------9---9-------
G|-12-------12----12-------12----12-------12----12----------12-10-------10----
D|----------------------------------------------------------------------------
A|----------------------------------------------------------------------------
E|----------------------------------------------------------------------------

-8------------11-------14-11--------------------------------------------------
---9-------12----12----------12-----------------------------------------------
-----10s13----------13----------13(s12)--------------------------------------- x2
------------------------------------------------------------------------------
------------------------------------------------------------------------------
------------------------------------------------------------------------------

Verse:
E G#m Gm (played very quickly, sliding down)
Embarassed possessed and so uncivilized
F#m7add13 Asus2
Just take a look at the whites of my eyes
E G#m Gm
See me now and I will apologize
F#m7add13 Asus2
For me for you we knew they were lies
E|-5------------------|
B|-5--2-------------|
G|---------21-21-----|
D|-----------------4-2-|
A|---------------------|
E|---------------------|
E G#m Gm
It makes me angry ashamed but really alive
F#madd13 Asus2
It may have worked but at what price
e|-------------0-|
B|-------------0-|
G|-------------1-|
D|-------------2-|
A|-------2b4r2-2-|
E|-2b4r2-------0-|
E G#m Gm
What's the point in all this looking back
F#m7add13 Asus
When all you see is more and more junk
e|-----------------------|
B|-----------------------|
G|-----2-2-2-2-2-2-2-2-2-|
D|-----2-2-2-2-2-2-2-2-2-|
A|-0-3---0-0-0-0-0-0-0-0-|
E|-----------------------|
Chorus:
E F#m Am (with intro riff throughout)
It was no surface but all feeling
E F#m Am
Maybe at the time it felt like dreaming

Verse 2:
E G#m Gm
Maybe richer, maybe wiser
F#m7add13 Asus2
It seemed so easy to not go too far
E G#m Gm
Beg me to stop hate my face I know
F#m7add13 Asus2
Tell me forever just to go
e|-------------------|
B|-0-42-----------|
G|---------21-------|
D|-------------2/42-|
A|-------------------|
E|-------------------|
E G#m Gm
Just one thing before I get to sleep
F#m7add13 Asus2
Nothing left but the stains on my teeth
e|---------------0-|
B|---------------0-|
G|---------------1-|
D|-----------2/4-2-|
A|-------2/4-----2-|
E|-2b4r2---------0-|
E G#m Gm
No not blood just liquid from you
F#m7add13 A5
I only wish it was the truth
e|------------------------|
B|------------------------|
G|-----2--2-2-2-2-2-2-2-2-|
D|-----2--2-2-2-2-2-2-2-2-|
A|-0-3----0-0-0-0-0-0-0-0-|
E|------------------------|
Chorus:
E F#m Am (with intro riff throughout)
Feel the guilt of a sinner
E F#m Am
Feel the cold of a winter
E F#m Am
It was no surface all feeling
E F#m Am E
Maybe at the time it felt like dreaming
Guitar Solo:
E F#m Am
e|-----------------------------------|-----------|---------------------|
B|-----------------------------------|------4-5--|--------------12b13--|
G|-----------------------------------|----4------|--5--7---9---10------|
D|-x-x-x-x-x-x-x-x---------2/4b6-6r4-|-/6--------|-7--9--10--12--------|
A|-x-x-x-x-x-x-x-x-------2-----------|-----------|---------------------|
E|-x-x-x-x-x-x-x-x-0-2/4-------------|-----------|---------------------|
E F#m
e|------------------------------------|------9-9-12-9-------------|
B|------------------------------------|----10--------10-9---------|
G|-8/9-8-6-8-6-2--13/14-13-11-13-11-9-|-/11---------------11-9-11-|
D|------------------------------------|---------------------------|
A|-6/7-6-4-6-4-2--11/12-11--9-11-9--7-|---------------------------|
E|------------------------------------|---------------------------|
Am E [N.C.]
e|------12-12-15-12-----------------|-0---------------------------|
B|----13-----------13-12------------|-0---------------------------|
G|-/14------------------14-12-14-13-|-1---13/14/16~~~14-13/1413-|
D|----------------------------------|-2---------------------------|
A|----------------------------------|-2---11/12/14~~~12-11/1211-|
E|----------------------------------|-0----0--------------0-------|
e|-------------------------|
B|-------------------------|
G|-13/15/16~~~14-13/1413-|
D|-------------------------|
A|-11/12/14~~~12-11/1211-|
E|-----------------0-----0-|




Ваше мнение



Капча